Home » F » Falco »

Falco - Ganz Wien Tabs

Artists:  A B C D E F G H I J K L M N O P Q R S T U V W X Y Z # 

Ganz Wien Tabs

(ver. 1) Click to play this song!
Falco
[Intro]

e|----------------1--1---1---------3--3---3---------8--8----------8--8-------|
B|----------------1--1---1---------3--3---3---------8--8----------8--8-------|
G|----------------2--2---2---------4--4---4---------8--8----------8--8-------|
D|----------------3--3---3---------5--5---5---------8--8----------8--8-------| 
A|---------(3)(3)-3--3---3--(5)(5)-5--5---5-(10)(10)10-10-(10)(10)10-10------|
E|----8\----1--1--1--1---1---3--3--3--3---5---8--8--8--8----8--8--8--8-------|

e|----------8--8----------8--------------------------------------------------|
B|----------8--8----------8--------------------------------------------------|
G|----------8--8----------8--------------------------------------------------|    
D|----------8--8----------8--------------------------------------------------| 
A|--(10)(10)10-10-(10)(10)10-------------------------------------------------|
E|----8--8--8--8----8--8--8--------------------------------------------------|  x7

e|----------------1--1---1---------3--3---3---------8--8-------8-----8-------|
B|----------------1--1---1---------3--3---3---------8--8-------8-----8-------|
G|----------------2--2---2---------4--4---4---------8--8-------8-----8-------|
D|----------------3--3---3---------5--5---5---------8--8-------8-----8-------|
A|---------(3)(3)-3--3---3--(5)(5)-5--5---5-(10)(10)10-10-(10)10(10)10-------|
E|----8\----1--1--1--1---1---3--3--3--3---5---8--8--8--8----8--8--8--8-------| the 8th time


[Verse]

e|----------------1--1---1---------3--3---3---------8--8----------8--8-------|
B|----------------1--1---1---------3--3---3---------8--8----------8--8-------|
G|----------------2--2---2---------4--4---4---------8--8----------8--8-------|
D|----------------3--3---3---------5--5---5---------8--8----------8--8-------|
A|---------(3)(3)-3--3---3--(5)(5)-5--5---5-(10)(10)10-10-(10)(10)10-10------|
E|----8\----1--1--1--1---1---3--3--3--3---5---8--8--8--8----8--8--8--8-------|  x7

e|----------8--8----------8--------------------------------------------------|
B|----------8--8----------8--------------------------------------------------|
G|----------8--8----------8--------------------------------------------------|
D|----------8--8----------8--------------------------------------------------|
A|--(10)(10)10-10-(10)(10)10-------------------------------------------------|
E|----8--8--8--8----8--8--8--------------------------------------------------| the 8th time

e|----------------1--1---1---------3--3---3---------8--8----------8--8-------|
B|----------------1--1---1---------3--3---3---------8--8----------8--8-------|
G|----------------2--2---2---------4--4---4---------8--8----------8--8-------|
D|----------------3--3---3---------5--5---5---------8--8----------8--8-------|
A|---------(3)(3)-3--3---3--(5)(5)-5--5---5-(10)(10)10-10-(10)(10)10-10------|
E|----8\----1--1--1--1---1---3--3--3--3---5---8--8--8--8----8--8--8--8-------|  x7

e|----------8--8----------8--------------------------------------------------|
B|----------8--8----------8--------------------------------------------------|
G|----------8--8----------8--------------------------------------------------|
D|----------8--8----------8--------------------------------------------------|
A|--(10)(10)10-10-(10)(10)10-------------------------------------------------|
E|----8--8--8--8----8--8--8--------------------------------------------------| the 8th time

 [Solo]
  F                    G                 Cm7
e|--------------------|-----------------|------------------------------------|
B|--------------------|-----------------|----------------------------11------|
G|--------------8b8.5-|-----------------|-------------8—10p8----8/12----12\8-|
D|------8—8h10--------|------8—8b8.5-10~|------8—8h10--------10--------------|
A|-8/10---------------|-8/10------------|-8/10-------------------------------|
E|--------------------|-----------------|------------------------------------|

          F                            G
e|-------|----------------------------|--------------------------------------|
B|-------|-11-13b15-13b15-13b15-13b15-|-13b16-13b16-13b16-13b16-13~----------|
G|-8-/12-|----------------------------|--------------------------------------|
D|-------|----------------------------|--------------------------------------|
A|-------|----------------------------|--------------------------------------|
E|-------|----------------------------|--------------------------------------|
  Cm7                        F                 G             Cm7
e|---11-13-13b15-13-11------|-18b20-20~20br18-|-18t15-18t14-18---18t15-18----|
B|-13------------------13-x-|-----------------|--------------|---------------|
G|--------------------------|-----------------|--------------|---------------|
D|--------------------------|-----------------|--------------|---------------|
A|--------------------------|-----------------|--------------|---------------|
E|--------------------------|-----------------|--------------|---------------|
                      F                   G                   Cm7
e|-21b23-21b23-21b23-|-21b23-21b23-21b23-|-21b23-21b23-21b23-|-21b23~-23br21-|
B|-------------------|-------------------|-------------------|---------------|
G|-------------------|-------------------|-------------------|---------------|
D|-------------------|-------------------|-------------------|---------------|
A|-------------------|-------------------|-------------------|---------------|
E|-------------------|-------------------|-------------------|---------------|            
Submit corrections

↑ Back to top | Tablatures and chords for acoustic guitar and electric guitar, ukulele, drums are parodies/interpretations of the original songs. You may use it for private study, scholarship, research or language learning purposes only