Home » F » Faith Hill »

Faith Hill - Cry ( Better Tabs

Artists:  A B C D E F G H I J K L M N O P Q R S T U V W X Y Z # 

Cry ( Better Tabs

(ver. 1) Click to play this song!
Faith Hill
 Rating:
4/5 (4 votes)
                (Sion)
Cry - Faith Hill

            
Capo One for recorded key

Revative to capo=

-------------------------------------------------------------------------------
-------------------------------------------------------------------------------
---7------7--7-------9-7-------7---7---5---------------------------------------
----5-7-5------5-7-5-----5-7-5---5---5-----------------------------------------
-------------------------------------------------------------------------------
-------------------------------------------------------------------------------




picking optional=



   G     D    Em   C                                     go on to chords
e----------------------------------------------)--------------------------------
b---------3------------------------------------)--------3-----------------------
g---0----2-----0-----0-------------------------)--------------------------------
d--0----0-----0----0---------------------------)----0---------0--4--------------
a------------2----3----------------------------)---3--------0-------------------
e-3--------------------------------------------)--------------------------------

repeat twice or three times------------------>









G         D        Em           C        
If I had just one tear running down your cheek 
G     D        Em        C             G   
Maybe I could cope maybe I'd get some sleep
          D       Em        C
If I had just one moment at your expense
 D                C  G/B            D   C   G   D
Maybe all my misery, would be well spe-ent ye--ah


Chorus 1:
           G     D      Em          C       
Could you cry a little, lie just a little
  G                  D         Em          C
Pretend that you're feeling a little more pain
   G            D       Em             C
I gave now I'm wanting something in return 
    G          D         G  
So cry just a little for me
         

         G             D    Em             C
If your love could be caged honey I would hold the key
G               D         Em                    C           
And conceal it underneath the pile of lies you handed me 
 G              D          Em                  C
And you'd hunt those lies they'd be all you'd ever find
     D                               C    G/B      D   C   G   D
And that'd be all you'd have to know, for me to be fi-ine  ye-ah
        

Chorus 2:
           G     D      Em          C       
And you'd cry a little, die just a little
    G             D           Em          C
And baby I would feel just a little less pain
   G            D       Em             C
I gave now I'm wanting something in return 
    G          D         G  
So cry just a little for me


solo=
(relative to capo)


10-10-10-10-10h12p10-10-10-8-7---7-------------------10--12-12-------
------------------------------10--8------10---7h8-7------------------
-------------------------------------7-------------------------------
---------------------------------------------------------------------
---------------------------------------------------------------------
---------------------------------------------------------------------









 Em         C     Em                   D  
Give it up baby I hear you're doing fine
 Em             C               G          D
Nothing's gonna save me till I see it in your eyes
 G            F                  Em       Cm
Some kind of heartache come on, give it a try
G             D   (no chord)          D  C   G  D 
I don't want pity I just want what is mi-ine ye-ah
                                       

           G     D      Em          C       
Could you cry a little, lie just a little
  G                  D         Em          C
Pretend that you're feeling a little more pain
   G            D       Em             C
I gave now I'm wanting something in return 
    G          D         Em     C
So cry just a little for me--- yeah
 G   D                Em       C
Cry just a little for me, woah woa
           G     D         G  D  Em  C   G  D  G
Could you cry a little for me       yeah


Chords:

C   =   x32010

Cm  =   x35543 or xx5543

D   =   xx0232

Em  =   022000

F   =   133211 or xx3211

G   =   320003  

G/B =   x20003 



 
            
Submit corrections

↑ Back to top | Tablatures and chords for acoustic guitar and electric guitar, ukulele, drums are parodies/interpretations of the original songs. You may use it for private study, scholarship, research or language learning purposes only