» » »

Failure - Snow Angel Tabs

Artists:  A B C D E F G H I J K L M N O P Q R S T U V W X Y Z # 

Snow Angel Tabs

(ver. 1) Click to play this song!
Failure
 Rating:
4.3/5 (29 votes)

 Snow Angel  lessons Tabs too difficult? Try these video lessons and learn fast
 
                  *
e|------------0----------|
B|--------6-----6--------|
G|-----7-----------------|
D|---8-------------------|
A|-----------------------|
E|-----------------------|

e|-------------0---------|
B|----------0-----0------|
G|------4----------------|
D|---5-------------------|
A|-----------------------|
E|-----------------------|

e|----3-----3---3--3-----|
B|----3-----3---3--3-----|
G|----4-----4---4--4-----|
D|----5-----5---5--5-----|
A|----3-----3---3--3-----|
E|-----------------------|(mute chord after strumming) (x5)*



  Play this after 5th time through 
e|-----------------------|
B|--1---1--1--1----------|
G|-----------------------|
D|--2---2--2--2----------|
A|--3---3--3--3----------|
E|-----------------------|(mute chord after strumming)

e|-----------------------|
B|-----------------------|
G|-----------------------|
D|---3-------------------|
A|---3-------------------|
E|---5-------------------|(rest)
*

e|------------0----------|
B|--------6-----6--------|
G|-----7-----------------|
D|---8-------------------|
A|-----------------------|
E|-----------------------|

e|-------------0---------|
B|----------0-----0------|
G|------4----------------|
D|---5-------------------|
A|-----------------------|
E|-----------------------|

e|----3-----3---3--3--------|
B|----3-----3---3--3--------|
G|----4-----4---4--4--------|
D|----5-----5---5--5--------|
A|----3-----3---3--3--------|
E|--------------------------|(mute chord after strumming)(x3)*


Play after 3rd time through 

e|--------------------------|
B|--1---1--1--1-------------|
G|--------------------------|
D|--2---2--2--2-------------|
A|--3---3--3--3-------------|
E|--------------------------|(mute chord after strumming)

e|-----------------------|
B|-----------------------|
G|-----------------------|
D|---3-------------------|
A|---3-------------------|
E|---5-------------------|(rest)

e|-----------------------|
B|-----------------------|
G|-----------5-----------|
D|---7- 3----5-----------|
A|---7--3----3-----------|
E|---5--1----------------|(x2) (listen for strumming pattern)

e|-------------------------|
B|-------------------------|
G|-------10----5-----------|
D|--7----10----5-----------|
A|--7----8-----3-----------|
E|--5----------------------|(x2) (Listen for strumming pattern)
*

e|------------0-----------|
B|--------6-----6---------|
G|-----7------------------|
D|---8--------------------|
A|------------------------|
E|------------------------|

e|-------------0----------|
B|----------0-----0-------|
G|------4-----------------|
D|---5--------------------|
A|------------------------|
E|------------------------|

e|----3-----3---3--3--------|
B|----3-----3---3--3--------|
G|----4-----4---4--4--------|
D|----5-----5---5--5--------|
A|----3-----3---3--3--------|
E|--------------------------|(mute chord after strumming) (x3)*



Play after 3rd time through 

e|--------------------------|
B|--1---1--1--1-------------|
G|--------------------------|
D|--2---2--2--2-------------|
A|--3---3--3--3-------------|
E|--------------------------|(mute chord after strumming)

e|--------------------------|
B|--------------------------|
G|--------------------------|
D|---3----------------------|
A|---3----------------------|
E|---5----------------------|(rest)



e|------------------------|
B|------------------------|
G|-----------5------------|
D|---7- 3----5------------|
A|---7--3----3------------|
E|---5--1-----------------|(x2) (listen for strumming pattern)

e|-------------------------|
B|-------------------------|
G|-------10----5-----------|
D|--7----10----5-----------|
A|--7----8-----3-----------|
E|--5----------------------|(x2) (Listen for strumming pattern, 2nd time around play last chord once)



e|------------------------|
B|------------------------|
G|------------------------|
D|--5--4--3-3----3-3----3-|
A|--5--4--3-3----1-1----3-|
E|--3--2--1-1-(h)1-1-(H)1-|(x5)

e|-----------------------|
B|-----------------------|
G|---5-------------------|
D|---5-------------------|
A|---3-------------------|
E|-----------------------|            
Submit corrections


        Snow Angel  lessons Hard to play? Try these video lessons and learn fast Snow Angel  lessons
        
↑ Back to top | Tablatures and chords for acoustic guitar and electric guitar, ukulele, drums are parodies/interpretations of the original songs. You may use it for private study, scholarship, research or language learning purposes only