» » »

Failure - Let It Drip Tabs

Artists:  A B C D E F G H I J K L M N O P Q R S T U V W X Y Z # 

Let It Drip Tabs

(ver. 1) Click to play this song!
Failure
 Rating:
4.2/5 (30 votes)

 Let It Drip lessons Tabs too difficult? Try these video lessons and learn fast
 
                [Main Riff #1]                                                      [segue to Main Riff #2]

Eb|-----------------------------------------------------------------|-------|
Ab|-----------------------------------------------------------------|-------|
Db|-----------------------------------------------------------------|-------|
Gb|--------3---3---3---3---3---3---3---3---3/5---0-------0---0---0--|-----0-|
Bb|-----------------------------------------------------------------|-------|
Eb|--3/4---4---4---4---4---4---4---4---4-------------7--------------|-7-----|


[Main Riff #2 / Rhythm Guitar under the solo]               

Eb|----------------|       |------------------||-----------------------|
Ab|----------------|       |------------------||-----------------------|
Db|----------------| x 7   |------------------||-----------------------|
Gb|----------------|       |--5---0-------0---||-----------------------|
Bb|--5---5---5---5-|       |------------------||///8---8---8---8---8---|
Eb|--6---6---6---6-|       |----------7-------||///9---9---9---9---9\3-|
                              
                               [end of bar]      [end of riff]


[Live Solo]

Eb|---------------------------------------------------------------------|
Ab|---------------------------------------------------------------------|
Db|-------10-----------10-----------10--------9-----------9-----------9-|
Gb|--12-----------12-----------12--------12----------12----------12-----|
Bb|---------------------------------------------------------------------|
Eb|---------------------------------------------------------------------|

Eb|---------------------------------||--------------------------------||----------------------|
Ab|------13----------13----------13-||-----11----------11----------11-||//////18-----------18/|
Db|--9-----------9-----------9------||-9-----------9-----------9------||/15-----------15//////|
Gb|---------------------------------||--------------------------------||----------------------|
Bb|---------------------------------||--------------------------------||----------------------|
Eb|---------------------------------||--------------------------------||----------------------|

                                                [end of bar]                 [end of solo]


[Studio Solo]

Eb|-----------------------------------------------------------------------|
Ab|-------18-----------18-----------18--------17----------17-----------17-|
Db|--19-----------19-----------19--------19----------19-----------19------|
Gb|-----------------------------------------------------------------------|
Bb|-----------------------------------------------------------------------|
Eb|-----------------------------------------------------------------------|

Eb|-------20-----------20-----------20-||------18-----------18-----------18-||\\\\\\\13-----------13\\|
Ab|--17-----------17-----------17------||-17-----------17-----------17------||\\11-----------11\\\\\\\|
Db|------------------------------------||-----------------------------------||------------------------|
Gb|------------------------------------||-----------------------------------||------------------------|
Bb|------------------------------------||-----------------------------------||------------------------|
Eb|------------------------------------||-----------------------------------||------------------------|

                                                    [end of bar]                   [end of solo]


[Outro]

Eb|--------------|
Ab|--------------|
Db|--------------|
Gb|--------3\\\\\|
Bb|--------------|
Eb|--3/4---4\\\\\|


            
Submit corrections


        Let It Drip lessons Hard to play? Try these video lessons and learn fast Let It Drip lessons
        
↑ Back to top | Tablatures and chords for acoustic guitar and electric guitar, ukulele, drums are parodies/interpretations of the original songs. You may use it for private study, scholarship, research or language learning purposes only