» » »

Failure - Leo Tabs

Artists:  A B C D E F G H I J K L M N O P Q R S T U V W X Y Z # 

Leo Tabs

(ver. 1) Click to play this song!
Failure
 Rating:
2.2/5 (30 votes)

 Leo  lessons Tabs too difficult? Try these video lessons and learn fast
 
                Intro (overdrive)                                                  0:07
eb|------------------------------------------------|-------------------|
Bb|------------------------------------------------|-------------------|
Gb|-4-4-4-4-4-4--4/-7-7-7-7-7-7--7\-2-2-2-2-2-2--2/|-9--9-7-6--7-7-7-7-|
Db|-4-4-4-4-4-4--4/-7-7-7-7-7-7--7\-2-2-2-2-2-2--2/|-9--9-7-6--7-7-7-7-|
Ab|-5-5-5-5-5-5--5/-8-8-8-8-8-8--8\-3-3-3-3-3-3--3/|10-10-8-7--8-8-8-8-|
Eb|-5-5-5-5-5-5--5/-8-8-8-8-8-8--8\-3-3-3-3-3-3--3/|10-10-8-7--8-8-8-8-|
    * * * * * *     * * * * * *     * * * * * *
Main verse                                                         0:14
eb|------------------------------------------------|-------------------|
Bb|------------------------------------------------|-------------------|
Gb|-4-4-4-4-4-4-4-4-7-7-7-7-7-7-7-7-2-2-2-2-2-2-2-2|-9--9-7-6--7-7-7-7-|
Db|-4-4-4-4-4-4-4-4-7-7-7-7-7-7-7-7-2-2-2-2-2-2-2-2|-9--9-7-6--7-7-7-7-|
Ab|-5-5-5-5-5-5-5-5-8-8-8-8-8-8-8-8-3-3-3-3-3-3-3-3|10-10-8-7--8-8-8-8-|
Eb|-5-5-5-5-5-5-5-5-8-8-8-8-8-8-8-8-3-3-3-3-3-3-3-3|10-10-8-7--8-8-8-8-|

                                                                       0:22
eb|------------------------------------------------|-----------------------|
Bb|------------------------------------------------|-----------------------|
Gb|-4-4-4-4-4-4-4-4-7-7-7-7-7-7-7-7-2-2-2-2-2-2-2-2|-9--9--9--9--9--9--9--9|
Db|-4-4-4-4-4-4-4-4-7-7-7-7-7-7-7-7-2-2-2-2-2-2-2-2|-9--9--9--9--9--9--9--9|
Ab|-5-5-5-5-5-5-5-5-8-8-8-8-8-8-8-8-3-3-3-3-3-3-3-3|10-10-10-10-10-10-10-10|
Eb|-5-5-5-5-5-5-5-5-8-8-8-8-8-8-8-8-3-3-3-3-3-3-3-3|10-10-10-10-10-10-10-10|

                                                                   0:28
eb|------------------------------------------------|-------------------|
Bb|------------------------------------------------|-------------------|
Gb|-4-4-4-4-4-4-4-4-7-7-7-7-7-7-7-7-2-2-2-2-2-2-2-2|-9--9-7-6--7-7-7-7-|
Db|-4-4-4-4-4-4-4-4-7-7-7-7-7-7-7-7-2-2-2-2-2-2-2-2|-9--9-7-6--7-7-7-7-|
Ab|-5-5-5-5-5-5-5-5-8-8-8-8-8-8-8-8-3-3-3-3-3-3-3-3|10-10-8-7--8-8-8-8-|
Eb|-5-5-5-5-5-5-5-5-8-8-8-8-8-8-8-8-3-3-3-3-3-3-3-3|10-10-8-7--8-8-8-8-|

Bridge                                                                                                   0:42
eb|--------------------------|------------------------------------------------------------------------------|
Bb|-----1-1------------------|----1-1-----------------------------------------------------------------------|
Gb|-----2-2-4--4-4-4-4-4-4-4-|----2-2--9-9-9-9-9-9-9-9-9--4-4-4-4-4-4-4-4-4--2-2-2-2-2-2-2-2-2-2-2-2-2-2-2-2|
Db|-2-2-3-3-0--0-0-0-0-0-0-0-|2-2-3-3--9-9-9-9-9-9-9-9-9--x-x-x-x-x-x-x-x-x--x-x-x-x-x-x-x-x-x-x-x-x-x-x-x-x|
Ab|-2-2-----2--2-2-2-2-2-2-2-|2-2------7-7-7-7-7-7-7-7-7--5-5-5-5-5-5-5-5-5--3-3-3-3-3-3-3-3-3-3-3-3-3-3-3-3|
Eb|-0-0-----3--3-3-3-3-3-3-3-|0-0------5-5-5-5-5-5-5-5-5--3-3-3-3-3-3-3-3-3--1-1-1-1-1-1-1-1-1-1-1-1-1-1-1-1|

Chorus                                                                                   0:57
eb|----------------------------|    |--------------------------------------------------------|
Bb|----------------------------|    |--------------------------------------------------------|
Gb|-2-2------------------------| x3 |-2-2----------------------------------------------------|
Db|-2-2--14-14-11--11-11---9--9|    |-2-2--14-14-11-11-11-11-11-11-11-11-11-9-9-9-9-9-9-9-9-9|
Ab|-0-0--12-12--9---9--9---7--7|    |-0-0--12-12--9--9--9--9--9--9--9--9--9-7-7-7-7-7-7-7-7-7|
Eb|-0-0--10-10--7---7--7---5--5|    |-0-0--10-10--7--7--7--7--7--7--7--7--7-5-5-5-5-5-5-5-5-5|

Intro                                                              1:05
eb|------------------------------------------------|-------------------|
Bb|------------------------------------------------|-------------------|
Gb|-4-4-4-4-4-4--4/-7-7-7-7-7-7--7\-2-2-2-2-2-2--2/|-9--9-7-6--7-7-7-7-|
Db|-4-4-4-4-4-4--4/-7-7-7-7-7-7--7\-2-2-2-2-2-2--2/|-9--9-7-6--7-7-7-7-|
Ab|-5-5-5-5-5-5--5/-8-8-8-8-8-8--8\-3-3-3-3-3-3--3/|10-10-8-7--8-8-8-8-|
Eb|-5-5-5-5-5-5--5/-8-8-8-8-8-8--8\-3-3-3-3-3-3--3/|10-10-8-7--8-8-8-8-|
    * * * * * *     * * * * * *     * * * * * *

Main verse                                                         1:13
eb|------------------------------------------------|--------------------|
Bb|------------------------------------------------|--------------------|
Gb|-4-4-4-4-4-4-4-4-7-7-7-7-7-7-7-7-2-2-2-2-2-2-2-2|-9--9--9-6--7-7-7-7-|
Db|-4-4-4-4-4-4-4-4-7-7-7-7-7-7-7-7-2-2-2-2-2-2-2-2|-9--9--9-6--7-7-7-7-|
Ab|-5-5-5-5-5-5-5-5-8-8-8-8-8-8-8-8-3-3-3-3-3-3-3-3|10-10-10-7--8-8-8-8-|
Eb|-5-5-5-5-5-5-5-5-8-8-8-8-8-8-8-8-3-3-3-3-3-3-3-3|10-10-10-7--8-8-8-8-|

                                                                       1:20
eb|------------------------------------------------|-----------------------|
Bb|------------------------------------------------|-----------------------|
Gb|-4-4-4-4-4-4-4-4-7-7-7-7-7-7-7-7-2-2-2-2-2-2-2-2|-9--9--9--9--9--9--9--9|
Db|-4-4-4-4-4-4-4-4-7-7-7-7-7-7-7-7-2-2-2-2-2-2-2-2|-9--9--9--9--9--9--9--9|
Ab|-5-5-5-5-5-5-5-5-8-8-8-8-8-8-8-8-3-3-3-3-3-3-3-3|10-10-10-10-10-10-10-10|
Eb|-5-5-5-5-5-5-5-5-8-8-8-8-8-8-8-8-3-3-3-3-3-3-3-3|10-10-10-10-10-10-10-10|

                                                                   1:26
eb|------------------------------------------------|-------------------|
Bb|------------------------------------------------|-------------------|
Gb|-4-4-4-4-4-4-4-4-7-7-7-7-7-7-7-7-2-2-2-2-2-2-2-2|-9--9-7-6--7-7-7-7-|
Db|-4-4-4-4-4-4-4-4-7-7-7-7-7-7-7-7-2-2-2-2-2-2-2-2|-9--9-7-6--7-7-7-7-|
Ab|-5-5-5-5-5-5-5-5-8-8-8-8-8-8-8-8-3-3-3-3-3-3-3-3|10-10-8-7--8-8-8-8-|
Eb|-5-5-5-5-5-5-5-5-8-8-8-8-8-8-8-8-3-3-3-3-3-3-3-3|10-10-8-7--8-8-8-8-|

Bridge                                                                                                 1:38
eb|--------------------------|------------------------------------------------------------------------------|
Bb|-----1-1------------------|----1-1-----------------------------------------------------------------------|
Gb|-----2-2-4--4-4-4-4-4-4-4-|----2-2--9-9-9-9-9-9-9-9-9--4-4-4-4-4-4-4-4-4--2-2-2-2-2-2-2-2-2-2-2-2-2-2-2-2|
Db|-2-2-3-3-0--0-0-0-0-0-0-0-|2-2-3-3--9-9-9-9-9-9-9-9-9--x-x-x-x-x-x-x-x-x--x-x-x-x-x-x-x-x-x-x-x-x-x-x-x-x|
Ab|-2-2-----2--2-2-2-2-2-2-2-|2-2------7-7-7-7-7-7-7-7-7--5-5-5-5-5-5-5-5-5--3-3-3-3-3-3-3-3-3-3-3-3-3-3-3-3|
Eb|-0-0-----3--3-3-3-3-3-3-3-|0-0------5-5-5-5-5-5-5-5-5--3-3-3-3-3-3-3-3-3--1-1-1-1-1-1-1-1-1-1-1-1-1-1-1-1|

Chorus 
eb|----------------------------|    
Bb|----------------------------|    
Gb|-2-2------------------------| x3 
Db|-2-2--14-14-11--11-11---9--9|    
Ab|-0-0--12-12--9---9--9---7--7|    
Eb|-0-0--10-10--7---7--7---5--5| 
                                                                                     2:00
|----------------------------------------------------------------------------------------|
|----------------------------------------------------------------------------------------|
|-2-2------------------------------------------------------------------------------------|
|-2-2--14-14-11-11-11-11-11-11-11-11-11-9-9-9-9-9-9-9-9-9-7-7-7-7-7-7-7-7-7-7-7-7-7-7-7-7|
|-0-0--12-12--9--9--9--9--9--9--9--9--9-7-7-7-7-7-7-7-7-7-5-5-5-5-5-5-5-5-5-5-5-5-5-5-5-5|
|-0-0--10-10--7--7--7--7--7--7--7--7--7-5-5-5-5-5-5-5-5-5-3-3-3-3-3-3-3-3-3-3-3-3-3-3-3-3|

Solo (+1 Octave Effect; there's probably a ring mod tuned to G, too)         2:14
eb|-----------------------------------------------------------------|
Bb|-1/9------9------------------------------------------------------|
Gb|-----9------9------------------------------------------------11~-|
Db|-------11-----11--9-11-----11--9-11--9-11-----11--9-11--9-11-----|
Ab|-----------------------12-----------------12---------------------|
Eb|-----------------------------------------------------------------|

                                                                           2:28
eb|----------------------------------------------------------------------------|
Bb|-1/9------9-----------------------------------------------------------------|
Gb|-----9------9------------------------------------------------------------9\-|
Db|-------11-----11--9-11-----11--9-11--9-11-----11--9-11-12-11-12-11-12-11----|
Ab|-----------------------12-----------------12--------------------------------|
Eb|----------------------------------------------------------------------------|

Chorus 
eb|----------------------------|    
Bb|----------------------------|    
Gb|----------------------------| x3 
Db|-2-2--14-14-11--11-11---9--9|    
Ab|-0-0--12-12--9---9--9---7--7|    
Eb|-0-0--10-10--7---7--7---5--5| 

                                2:44
eb|---------------------------------|    
Bb|---------------------------------|    
Gb|---------------------------------| 
Db|-2-2--14-14-11-11-11-11-11---9--9|    
Ab|-0-0--12-12--9--9--9--9--9---7--7|    
Eb|-0-0--10-10--7--7--7--7--7---5--5|

2nd Guitar: Solo #2 (A whole hell of a lot of distortion and octave
                      effects and ring mod and who knows what else)
eb|--------------------------------------------------------------|
Bb|----17----17--17----17----17-----17--17----17--------17----17-|
Gb|-17----16--------16----17-----16-------16----17--16-----16----|
Db|--------------------------------------------------------------|
Ab|--------------------------------------------------------------|
Eb|--------------------------------------------------------------|
   It's difficult to know the exact notes here, but just figure 
   that it's going to be those 3 notes just randomly played in a 
   way that fits the beat. The notes are, most likely, actually
   played on a keyboard like the intro to "Stuck on You."

Chorus Version 2
eb|----------------------------|    
Bb|----------------------------|    
Gb|----------------------------| x3 
Db|-2-2--14-14-11--11-11---9--9|    
Ab|-0-0--12-12--9---9--9---7--7|    
Eb|-0-0--10-10--7---7--7---5--5| 

eb|---------------|    
Bb|---------------|    
Gb|---------------| 
Db|-2-2--14-14-11-|    
Ab|-0-0--12-12--9-|    
Eb|-0-0--10-10--7-|
            
Submit corrections


        Leo  lessons Hard to play? Try these video lessons and learn fast Leo  lessons
        
↑ Back to top | Tablatures and chords for acoustic guitar and electric guitar, ukulele, drums are parodies/interpretations of the original songs. You may use it for private study, scholarship, research or language learning purposes only