» » »

Failure - Heavy And Blind Tabs

Artists:  A B C D E F G H I J K L M N O P Q R S T U V W X Y Z # 

Heavy And Blind Tabs

(ver. 1) Click to play this song!
Failure
 Rating:
4.3/5 (9 votes)

 Heavy And Blind lessons Tabs too difficult? Try these video lessons and learn fast
 
                [Verse]

D#|---0-----0-----0-----0-----------------------------------------------------|
A#|---0-----0-----5-----5-----------------------------------------------------|
F#|---4-----4-----7-----6-----------------------------------------------------|
C#|---6-----5-----5-----5-----------------------------------------------------|
G#|---6-----6-----7-----7-----------------------------------------------------|
D#|---x-----x-----x-----x-----------------------------------------------------|


[Pre-Chorus]
                                                Leads into next part
D#|---x-----x-----x-----x-------------------|----0----------------------------|
A#|---x-----x-----x-----x-------------------|----0----------------------------|
F#|---x-----x-----x-----x-------------------|----8----------------------------|
C#|---8-----7-----7-----6-------------------|----8----------------------------|
G#|---9-----9-----7-----7-------------------|----6----------------------------|
D#|---6-----6-----4-----4-------------------|----x----------------------------|


[Lead]

D#|-------14-----------14---------11-----------11-----------------------------|
A#|-----12--12-------12---------12--12--------9-------------------------------|
F#|---15------15---14---------13------13----11--------------------------------|
C#|---------------------------------------------------------------------------|
G#|---------------------------------------------------------------------------|
D#|---------------------------------------------------------------------------|

[Solo]

D#|------7--------------------------------------------------------------------|
A#|---9--------------9----------------9---------------------------------------|
F#|--------7-------8---8--7\6\4-----8---8\7\4---------------------------------|
C#|---------------------------------------------------------------------------|
G#|---------------------------------------------------------------------------|
D#|---------------------------------------------------------------------------|

            
Submit corrections


        Heavy And Blind lessons Hard to play? Try these video lessons and learn fast Heavy And Blind lessons
        
↑ Back to top | Tablatures and chords for acoustic guitar and electric guitar, ukulele, drums are parodies/interpretations of the original songs. You may use it for private study, scholarship, research or language learning purposes only