» » »

Failure - Daylight Chords

Artists:  A B C D E F G H I J K L M N O P Q R S T U V W X Y Z # 

Daylight Chords

(ver. 1) Click to play this song!
Failure
 Rating:
4.4/5 (17 votes)

 Daylight lessons Tabs too difficult? Try these video lessons and learn fast
 
                [Intro]

Here is the piano riff tabbed out for guitar. Keep in mind that the piano on the recording is either out of 
tune or purposefully de-tuned for that creepy effect; so keep in mind that the pitches won't line up exactly 
with what you hear on the recording.

  F#                  F                   Ab                  Gm 
e|------10--11-------|------10--11-------|------10--11-------|------10--11-------|
B|---------------11--|---------------11--|---------------11--|---------------11--|
G|--11---------------|--10---------------|--13---------------|--12---------------|
D|-------------------|-------------------|-------------------|-------------------|
A|-------------------|-------------------|-------------------|-------------------|
E|-------------------|-------------------|-------------------|-------------------|

  F#                  F                   Bbsus4
e|------10--11-------|------10--11-------|------10--11--10---|-14--13-11--11-----|
B|---------------11--|---------------11--|--11------------11-|---------------11--|
G|--11---------------|--10---------------|-------------------|-------------------|
D|-------------------|-------------------|-------------------|-------------------|
A|-------------------|-------------------|-------------------|-------------------|
E|-------------------|-------------------|-------------------|-------------------|


[Verse 1]
F#               F       Ab              Gm
I've got a catacomb with fur covered styrofoam
   F#        F              Bbsus4
So come over now and sleep
F#               F     Ab                   Gm
Time isn't here again, wasted thoughts that could've been
    F#        F             Bbsus4
Now we can devise our plan


[Chorus]
F#  F
Day-light
Ab  Gm
Day-light
F#             F            Bbsus4
Daylight won't find us here


[Verse 2]
F#             F         Ab                    Gm
I've got a catacomb with flags that flew fifty years ago
F#             F              Bbsus4
Let sleep overcome your mind
F#              F              Ab       Gm
God isn't safe again, molests trees and chopped down men
   F#        F             Bbsus4
So we must revise our plan


[Chorus]
F#  F
Day-light
Ab  Gm
Day-light
F#             F            Bbsus4
Daylight won't find us here            
Submit corrections


        Daylight lessons Hard to play? Try these video lessons and learn fast Daylight lessons
        
↑ Back to top | Tablatures and chords for acoustic guitar and electric guitar, ukulele, drums are parodies/interpretations of the original songs. You may use it for private study, scholarship, research or language learning purposes only