» » »

Failure - Atom City Queen Tabs

Artists:  A B C D E F G H I J K L M N O P Q R S T U V W X Y Z # 

Atom City Queen Tabs

(ver. 1) Click to play this song!
Failure
 Rating:
4.3/5 (10 votes)

 Atom City Queen  lessons Tabs too difficult? Try these video lessons and learn fast
 
                e--------------------------|
b--------------------------|
g--/11-/12-/10---11--9-----|
d----------------------11--|
a--------------------------|
a----------------------- R-|x6

-----------------------|
------0-----0------0---|
----6-----6------6---6-|
--6-----5------4-------|
-----------------------|
-----------------------|

---------------------------------|
------0-------0----0---0-----0---|
----5-------6----6---4--4---5----|
-/7--------6----5---5-----/7-----|
---------------------------------|
---------------------------------|

-----------------------|
------0-----0------0---|
----6-----6------6---6-|
--6-----5------4-------|
-----------------------|
-----------------------|


---------------------------------|
------0-------0----0---0-----0---|
----5-------6----6---4--4---5----|
-/7--------6----5---5-----/7-----|
---------------------------------|
---------------------------------|

e--------------------------|
b--------------------------|
g--/11-/12-/10---11--9-----|
d----------------------11--|
a--------------------------|
a----------------------- R-|x6

-----------7(N)--------|
---7(n)--------7(N)----|
-------7(N)------------|
-----------------------|
-----------------------|
-----------------------| Rx16

-----------------------|
-----------------------|
-9-(H)11-9-------------|
-----------------------|
-----------------------|
-----------------------|


e--------------------------|
b--------------------------|
g--/11-/12-/10---11--9-----|
d----------------------11--|
a--------------------------|
a----------------------- R-|x6

--------------------------|
--------------------------|
------12------11-9--------|
----------10-------11-----|
--11--11--11--------------|
--9---9---9-------------R-|x5

Solo
----------------------- R-|x2
--/9-----------9----------|
----/9(b)--9-9---9-8------|(b)
--------------------------|
--------------------------|
--------------------------|

-----------------------|
-/99999---/14141414----|
-----------------------|
-----------------------|
-----------------------|
-----------------------|


----11---11---11---11-12--11--------|
------------------------------------|
-14---14---14---14------------------|
------------------------------------|
------------------------------------|
------------------------------------|

11-12-11-12-11-/9999----|
------------------------|
---------------------10-|(b)
------------------------|
------------------------|
------------------------|

------------------------|
--9---------------------|
9---9-8(b)--------------|
------------------------|
------------------------|
------------------------|

Feedback (:08)
            Rx4
------------|------------------|
------------|------------------|
------12----|--11-9------------|
----------10|-------11---------|
--11--11--11|------------------|
--9---9---9--------------------|

----------------------- R-|x4
--------------------------|
------12------11-9--------|
----------10-------11-----|
--11--11--11--------------|
--9---9---9---------------|

e--------------------------|
b--------------------------|
g--/11-/12-/10---11--9-----|
d----------------------11--|
a--------------------------|
a----------------------- R-|x6            
Submit corrections


        Atom City Queen  lessons Hard to play? Try these video lessons and learn fast Atom City Queen  lessons
        
↑ Back to top | Tablatures and chords for acoustic guitar and electric guitar, ukulele, drums are parodies/interpretations of the original songs. You may use it for private study, scholarship, research or language learning purposes only