» » »

Failure - Another Space Song Tabs

Artists:  A B C D E F G H I J K L M N O P Q R S T U V W X Y Z # 

Another Space Song Tabs

(ver. 1) Click to play this song!
Failure
 Rating:
4.4/5 (11 votes)

 Another Space Song lessons Tabs too difficult? Try these video lessons and learn fast
 
                [Intro guitar]

(tremolo)
e|------------9--------------------------------------------------------------|
B|---------------------------------------------------------------------------|
G|---------------------------------------------------------------------------|
D|---------------------------------------------------------------------------|
A|---------------------------------------------------------------------------|
E|---------------------------------------------------------------------------|


[Verse 1 & 3]
e|-----------------------------19-----------------------------------------------|
B|-----------------------------------19-----------------------------------------|
G|-----------------------18-----------------------------------------------------|
D|---------16-------------------------------------------------------------------|
A|----17-------17---------------------------------------------------------------|
E|------------------------------------------------------------------------------|


[Chorus]

e|-----------------------------------------------19------------19---------------|
B|----------------------------------------------------19------------19----------|
G|----18---------18--------18--19--18---------------------18------------18------|
D|----------16---------16-----------------16------------------------------------|
A|------------------------------------------------------------------------------|
E|------------------------------------------------------------------------------|

e|---------------------------------------------------------------------------------------------------|
B|----------------------------------------------------------------17-------17-------17---------------|
G|----18--------18--------18--19--18--------------------18-------------------------------------------|
D|----------16--------16-------------------16------/19-------19-------19-------19--------------------|
A|---------------------------------------------------------------------------------------------------|
E|---------------------------------------------------------------------------------------------------|


[Verse 2]

e|--------------------------------------------------------------------------|
B|--------------------------------------------------------------------------|
G|------------------18------------------------------------------------------|
D|-------16-----------------------------------------------------------------|
A|--17-------17-------------------------------------------------------------|
E|--------------------------------------------------------------------------|

e|---------------------------------------------------------------------------|
B|---------------------------------------------------------------------------|
G|------------------18-------/21--19-----------------------------------------|
D|-------16------------------------------------------------------------------|
A|--17-------17--------------------------------------------------------------|
E|---------------------------------------------------------------------------|

e|--------------------------------------------------------------------------------|
B|--------------------------------------------------------------------------------|
G|--19------------18-------------18-----14--16--14------------------14------------|
D|-------16-------------16-----------------------------16-------16--------16------|
A|------------17-------------17-----------------------------17--------------------|
E|--------------------------------------------------------------------------------|

e|-----------------------------------------------------------------------------|
B|-----------------------------------------------------------------------------|
G|--19------------18-------------18----16--14---------------------14-----------|
D|-------16-------------16-------------------------16--------16----------------|
A|------------17-------------17-------------------------17---------------------|
E|-----------------------------------------------------------------------------|

e|-----------------------------------------------------------------------------|
B|-----------------------------------------------------------------------------|
G|--19------------18-------------18-----14--16--14------------------14---------|
D|-------16-------------16-----------------------------16-------16------16-----|
A|------------17-------------17------------------------------17----------------|
E|-----------------------------------------------------------------------------|

e|---------------------------------------------------------------------------|
B|---------------------------------------------------------------------------|
G|--19-------------18-------------18------21--19-----------------------------|
D|--------16-------------16--------------------------------------------------|
A|-------------17-------------17---------------------------------------------|
E|---------------------------------------------------------------------------|


[Bridge]

e|-------------------21----------------17------------19-----------------17-------------|
B|-------15--------------15-------15-------15--------------15-------19------19---------|
G|--18--------18-------------18------------------18-------------18--------------18-----|
D|-------------------------------------------------------------------------------------|
A|-------------------------------------------------------------------------------------|
E|-------------------------------------------------------------------------------------|


[Outro]

e|---------------0------------------0---------------------------0-------------------------|
B|--------10-------------12---------------------------------------------------------------|
G|--11---------------11--------9---------9---------10---------------10--------10----------|
D|---------------------------------------------12-------12---------------12--------12-----|
A|----------------------------------------------------------------------------------------|
E|----------------------------------------------------------------------------------------|

e|---------------0-----------------0-----------------------0-------------------------|
B|--------10-------------12----------------------------------------------------------|
G|--11---------------11--------9-------9----------10---------------------------------|
D|---------------------------------------------12----12------------------------------|
A|-----------------------------------------------------------------------------------|
E|-----------------------------------------------------------------------------------|
            
Submit corrections


        Another Space Song lessons Hard to play? Try these video lessons and learn fast Another Space Song lessons
        
↑ Back to top | Tablatures and chords for acoustic guitar and electric guitar, ukulele, drums are parodies/interpretations of the original songs. You may use it for private study, scholarship, research or language learning purposes only