» » »

Exploited - Out Of Control Tabs

Artists:  A B C D E F G H I J K L M N O P Q R S T U V W X Y Z # 

Out Of Control Tabs

(ver. 1) Click to play this song!
Exploited
 Rating:
4.3/5 (27 votes)

 Out Of Control lessons Tabs too difficult? Try these video lessons and learn fast
 
                [Intro]
E|-----------------|
B|-----------------|
G|-----------------|
D|-10~~~~~~~~~~~~--|
A|-----------------|
E|-----------------|
                                             
[Verse 1]
E|-------------------------------------------------|:| X 4
B|-------------------------------------------------|:|
G|-------------------------------------------------|:|
D|-9-9-9-9-9-9-5-5-5-5-5-5-4-4-4-4-4-4-7-7-7-7-7-7-|:|
A|-9-9-9-9-9-9-5-5-5-5-5-5-4-4-4-4-4-4-7-7-7-7-7-7-|:|
E|-7-7-7-7-7-7-3-3-3-3-3-3-2-2-2-2-2-2-5-5-5-5-5-5-|:|

[Chorus]
E|-------------------------------|:| X 4
B|-------------------------------|:|
G|-10-10-10-10-10-10-7-7-7-7-7-7-|:|
D|-10-10-10-10-10-10-7-7-7-7-7-7-|:|
A|--8--8--8--8--8--8-5-5-5-5-5-5-|:|
E|-------------------------------|:|

[Verse 2]
E|-------------------------------------------------|:| X 4
B|-------------------------------------------------|:|
G|-------------------------------------------------|:|
D|-9-9-9-9-9-9-5-5-5-5-5-5-4-4-4-4-4-4-7-7-7-7-7-7-|:|
A|-9-9-9-9-9-9-5-5-5-5-5-5-4-4-4-4-4-4-7-7-7-7-7-7-|:|
E|-7-7-7-7-7-7-3-3-3-3-3-3-2-2-2-2-2-2-5-5-5-5-5-5-|:|

[Chorus]
E|-------------------------------|:| X 4
B|-------------------------------|:|
G|-10-10-10-10-10-10-7-7-7-7-7-7-|:|
D|-10-10-10-10-10-10-7-7-7-7-7-7-|:|
A|--8--8--8--8--8--8-5-5-5-5-5-5-|:|
E|-------------------------------|:|

[Verse 3]
E|-------------------------------------------------|:| X 4
B|-------------------------------------------------|:|
G|-------------------------------------------------|:|
D|-9-9-9-9-9-9-5-5-5-5-5-5-4-4-4-4-4-4-7-7-7-7-7-7-|:|
A|-9-9-9-9-9-9-5-5-5-5-5-5-4-4-4-4-4-4-7-7-7-7-7-7-|:|
E|-7-7-7-7-7-7-3-3-3-3-3-3-2-2-2-2-2-2-5-5-5-5-5-5-|:|

[Chorus]
E|-------------------------------|:| X 4
B|-------------------------------|:|
G|-10-10-10-10-10-10-7-7-7-7-7-7-|:|
D|-10-10-10-10-10-10-7-7-7-7-7-7-|:|
A|--8--8--8--8--8--8-5-5-5-5-5-5-|:|
E|-------------------------------|:|

[Outro]
E|-------------------------------------------------------------|
B|-8p5p0-8p5p0-8p5p0-8p5p0-8p5p0-8p5p0-8p5p0-8p5p0-8p5p0-8p5p0-|
G|-------------------------------------------------------------|
D|-------------------------------------------------------------|
A|-------------------------------------------------------------|
E|-------------------------------------------------------------|

            
Submit corrections


        Out Of Control lessons Hard to play? Try these video lessons and learn fast Out Of Control lessons
        
↑ Back to top | Tablatures and chords for acoustic guitar and electric guitar, ukulele, drums are parodies/interpretations of the original songs. You may use it for private study, scholarship, research or language learning purposes only