» » »

Exploited - Blow To Bits Tabs

Artists:  A B C D E F G H I J K L M N O P Q R S T U V W X Y Z # 

Blow To Bits Tabs

(ver. 1) Click to play this song!
Exploited
 Rating:
3.4/5 (5 votes)
                intro x4
e----------------------------------------|
b----------------------------------------|
g----------------------------------------|
d0-2-2-2-2-0-2-2-2-2-0-2-2-2-2-4-5-5-5-4-|
a----------------------------------------|
E----------------------------------------|

they argue (something about the bassist picking or playing to fast)
then it start with them over again

verses 1 x7
e----------------------------------------|
b----------------------------------------|
g----------------------------------------|
d0-2-2-2-2-0-2-2-2-2-0-2-2-2-2-4-5-5-5-4-|
a----------------------------------------|
E----------------------------------------|

chorus x2
e----------------------------|
b----------------------------|
g----------------------------|
d----------------------------|
a--2222222-4-4-4-4-0---0---0-|
E----------------------------|

verses 1 x6
e----------------------------------------|
b----------------------------------------|
g----------------------------------------|
d0-2-2-2-2-0-2-2-2-2-0-2-2-2-2-4-5-5-5-4-|
a----------------------------------------|
E----------------------------------------|

chorus x2
e----------------------------|
b----------------------------|
g----------------------------|
d----------------------------|
a--2222222-4-4-4-4-0---0---0-|
E----------------------------|

pause then the snares kick in

verse 1 x6
e----------------------------------------|
b----------------------------------------|
g----------------------------------------|
d0-2-2-2-2-0-2-2-2-2-0-2-2-2-2-4-5-5-5-4-|
a----------------------------------------|
E----------------------------------------|

chorus x2
e----------------------------|
b----------------------------|
g----------------------------|
d----------------------------|
a--2222222-4-4-4-4-0---0---0-|
E----------------------------|
            
Submit corrections

↑ Back to top | Tablatures and chords for acoustic guitar and electric guitar, ukulele, drums are parodies/interpretations of the original songs. You may use it for private study, scholarship, research or language learning purposes only