Home » E » Exploding Hearts »

Exploding Hearts - Your Shadow Tabs

Artists:  A B C D E F G H I J K L M N O P Q R S T U V W X Y Z # 

Your Shadow Tabs

(ver. 1) Click to play this song!
Exploding Hearts
YOUR SHADOW

Intro/Solos
E |-10-10-10-10----10-10-10----10-10----10----------------------------------|
B |-10-10-10-10----10-10-10----10-10----10----------------------------------|
G |------------b12---------b12------b12----12p10----10-12-10----10----10-12-|
D |----------------------------------------------12----------12----12-------|
A |-------------------------------------------------------------------------|
E |-------------------------------------------------------------------------|

Verse/Chords Under Solos
E |------------------------------------------------------------------|
B |------------------------------------------------------------------|
G |------------------------------------------------------------------|
D |-7--7--------7--7--------10-10-------10-10------------------------|
A |-5--5--7--7--5--5--7--7--8--8--10-10-8--8--10-10------------------|
E |-------5--5--------5--5--------8--8--------8--8-------------------|


Chorus
E |-------------------------------------------|
B |-------------------------------------------|
G |-------------7-----10----12-------15----14-|
D |-5-----8-----7-----10----12-------15----14-|
A |-5-----8-----5-----8-----10-------13----12-|
E |-3-----6-----------------------------------|
            
Submit corrections

↑ Back to top | Tablatures and chords for acoustic guitar and electric guitar, ukulele, drums are parodies/interpretations of the original songs. You may use it for private study, scholarship, research or language learning purposes only