Home » E » Exploding Hearts »

Exploding Hearts - You're Black And Blue Tabs

Artists:  A B C D E F G H I J K L M N O P Q R S T U V W X Y Z # 

You're Black And Blue Tabs

(ver. 1) Click to play this song!
Exploding Hearts
YOU'RE BLACK AND BLUE

Intro/Verse
E |----------------0-----0--0----------------------------------------|
B |----------------0-----0--0----------------------------------------|
G |-2--2--2--2-----1-----1--1--------------2-----------------------2-|
D |-2--2--2--2--2--2--2--2--2--4--4--4--4--2--------0--2--0--------2-|
A |-0--0--0--0--2--2--2--2--2--4--4--4--4--0--0--2-----------2--0--0-|
E |-------------0--0--0--0--0--2--2--2--2----------------------------|

E |----------------------------------------------0--------0----------|
B |-------------------------------------------------0-----0----------|
G |----------------------------------------------------1--1----------|
D |-4--4--4--4--4--4--4--4--4--4--4--4--4--4--2-----------2----------|
A |-4--4--4--4--4--4--4--4--4--4--4--4--4--4--2-----------2----------|
E |-2--2--2--2--2--2--2--2--2--2--2--2--2--2--0-----------0----------|


Chorus
E |------------------------------------------------------------------|
B |------------------------------------------------------------------|
G |-2--2--2--2--------------2--2--2--2-------------------------------|
D |-2--2--2--2--4--4--4--4--2--2--2--2--4--4--4--4-------------------|
A |-0--0--0--0--4--4--4--4--0--0--0--0--4--4--4--4-------------------|
E |-------------2--2--2--2--------------2--2--2--2-------------------|


Solo
E |----------------------------------------------5--5--5-----5--5--5-|
B |----------------------------------------------5--5--5-----5--5--5-|
G |------------------------------------------------------b7----------|
D |----------5-----5-----------5-----5-b7--5-------------------------|
A |-7--7--7-----7-----7--7--7-----7-----------7----------------------|
E |------------------------------------------------------------------|

E |-5--5--5--5--5--5--5--5--5--5--5--5--5--5--5--5--5--5--5--5--5--5-|
B |-5--5--5--5--5--5--5--5--5--5--5--5--5--5--5--5--5--5--5--5--5--5-|
G |------------------------------------------------------------------|
D |------------------------------------------------------------------|
A |------------------------------------------------------------------|
E |------------------------------------------------------------------|


End Chord (hit repeatedly)
E |------|
B |------|
G |-7----|
D |-7----|
A |-5----|
E |------|
            
Submit corrections

↑ Back to top | Tablatures and chords for acoustic guitar and electric guitar, ukulele, drums are parodies/interpretations of the original songs. You may use it for private study, scholarship, research or language learning purposes only