Home » E » Exploding Hearts »

Exploding Hearts - Thorns In Roses Tabs

Artists:  A B C D E F G H I J K L M N O P Q R S T U V W X Y Z # 

Thorns In Roses Tabs

(ver. 1) Click to play this song!
Exploding Hearts
THORNS IN ROSES

Intro
E |------------------------------------------------------------------|
B |-------------------------5--5--5--5--5--4-------------------------|
G |-4--4--4--4--4--4--4--4--4--4--4--4--4--4-------------------------|
D |-4--4--4--4--4--4--4--4--4--4--4--4--4--4-------------------------|
A |-2--2--2--2--2--2--2--2--2--2--2--2--2--2-------------------------|
E |------------------------------------------------------------------|


Verse  Play 3x then play vvv
E |---------------|--------------------------------------------------|
B |---------------|--------------------------------------------------|
G |-------------2-|---4----------------------------------------------|
D |-2--2--2--4--2-|---4----------------------------------------------|
A |-2--2--2--4--0-|---2----------------------------------------------|
E |-0--0--0--2----|--------------------------------------------------|


Riff over verse
E |------------------------------------------------------------------|
B |-5--5--5--4--2--0-------------------------------------------------|
G |------------------------------------------------------------------|
D |------------------------------------------------------------------|
A |------------------------------------------------------------------|
E |------------------------------------------------------------------|


Chorus
E |------------------------------------------------------------------|
B |------------------------------------------------------------------|
G |-4--2-----------------------------4--4--4-----2--4--4--4--4--4--4-|
D |-4--2--2--2-----------------6--4--4--4--4--6--2--4--4--4--4--4--4-|
A |-2--0--2--2--------------2--2--2--2--2--2--6--0--2--2--2--2--2--2-|
E |-------0--0--3--3--3-/4--------------------4----------------------|


Solo
E |-12-12-12-12-12-12-12-12-12-12-12-------7--7--7--7--7--7--7--7--7-|
B |-12-12-12-12-12-12-12-12-12-12-12-------7--7--7--7--7--7--7--7--7-|
G |----------------------------------7-h8----------------------------|
D |------------------------------------------------------------------|
A |------------------------------------------------------------------|
E |------------------------------------------------------------------|

E |-------------12-12-12-12-12-12-12-12-12-12-15-12-12-12-12-12-12-12-|
B |-7-----------12-12-12-12-12-12-12-12-12-12-14-12-12-12-12-12-12-12-|
G |----9--7-----------------------------------------------------------|
D |----------9--------------------------------------------------------|
A |-------------------------------------------------------------------|
E |-------------------------------------------------------------------|


Bridge (play the open strings over the chords)
E |-0-----0-----0----------------------------------------------------|
B |----0-----0-----0-------------------------------------------------|
G |-------------------------------2--4-------------------------------|
D |----------------------2--4--6--2--4-------------------------------|
A |----------------------2--4--6--0--2-------------------------------|
E |----------------------0--2--4-------------------------------------|
            
Submit corrections

↑ Back to top | Tablatures and chords for acoustic guitar and electric guitar, ukulele, drums are parodies/interpretations of the original songs. You may use it for private study, scholarship, research or language learning purposes only