Home » E » Exploding Hearts »

Exploding Hearts - Sniffin' Glue Tabs

Artists:  A B C D E F G H I J K L M N O P Q R S T U V W X Y Z # 

Sniffin' Glue Tabs

(ver. 1) Click to play this song!
Exploding Hearts
Intro/Play 4x
E |------------------------------------------------------------------|
B |------------------------------------------------------------------|
G |-9--9-----9--------------7--7-----7-------------------------------|
D |-9--9-----9--9--9-----9--7--7-----7--7--7-----7-------------------|
A |-7--7-----7--9--9-----9--5--5-----5--7--7-----7-------------------|
E |-------------7--7-----7--------------5--5-----5-------------------|


Riff/Play 2x over Intro
E |------------------------------------------------------------------|
B |-7-----7-----7-----7-----7-----7--------7-------------------------|
G |----8-----------8-----------8--------8-----8----------------------|
D |------------------------------------------------------------------|
A |------------------------------------------------------------------|
E |------------------------------------------------------------------|


Verse/Play 4x
E |------------------------------------------------------------------|
B |------------------------------------------------------------------|
G |-9--9--9--9--------------7--7--7--7-------------------------------|
D |-9--9--9--9--9--9--9--9--7--7--7--7--7--7--7--7-------------------|
A |-7--7--7--7--9--9--9--9--5--5--5--5--7--7--7--7-------------------|
E |-------------7--7--7--7--------------5--5--5--5-------------------|


Chorus/Play 2x
E |------------------------------------------------------------------|
B |------------------------------------------------------------------|
G |-9--9-----9--------------7--7-----7-------------------------------|
D |-9--9-----9--9--9-----9--7--7-----7--7--7-----7-------------------|
A |-7--7-----7--9--9-----9--5--5-----5--7--7-----7-------------------|
E |-------------7--7-----7--------------5--5-----5-------------------|


Bridge/Play 1x
E |------------------------------------|
B |------------------------------------|
G |-7-----5-----7-----5-----7-----5----|
D |-7-----5-----7-----5-----7-----5----|
A |-5-----3-----5-----3-----5-----3----|
E |------------------------------------|
            
Submit corrections

↑ Back to top | Tablatures and chords for acoustic guitar and electric guitar, ukulele, drums are parodies/interpretations of the original songs. You may use it for private study, scholarship, research or language learning purposes only