Home » E » Exploding Hearts »

Exploding Hearts - Modern Kicks Tabs

Artists:  A B C D E F G H I J K L M N O P Q R S T U V W X Y Z # 

Modern Kicks Tabs

(ver. 1) Click to play this song!
Exploding Hearts
MODERN KICKS

Intro 2x
E |----0--0--0--0----------------------------------------------------|
B |----0--0--0--0-----------5--5--4--4--------------------5--5--4----|
G |----2--2--2--1-----4--4--4--4--4--4--2--2--------4--4--4--4--4--4-|
D |----2--2--2--2-----4--4--4--4--4--4--2--2--2--2--4--4--4--4--4--4-|
A |----2--2--2--2-----2--2--2--2--2--2--0--0--2--2--2--2--2--2--2--2-|
E |-0--0--0--0--0--0--------------------------0--0-------------------|

Lead
E |-------12-------12-------12-------12-------12---------------------|
B |-12h14----12h14----12h14----12h14----12h14------------------------|
G |------------------------------------------------------------------|
D |------------------------------------------------------------------|
A |------------------------------------------------------------------|
E |------------------------------------------------------------------|


E |------------------------------------------------------------------|
B |-5--5--5--4--4--4-------------------------------------------------|
G |-------------------4--4--4--4--6--6--4----------------------------|
D |------------------------------------------------------------------|
A |------------------------------------------------------------------|
E |------------------------------------------------------------------|

Play 2x
E |------------------------------------------------------------------|
B |------------------------------------------------------------------|
G |------------------------------------------------------------------|
D |-------------------------------------4--4-------------------------|
A |-2--2--4--2--2--2--4--2--2------2----2--2-------------------------|
E |-0--0--0--0--0--0--0--0--0--2h3-----------------------------------|

Play 2x
E |------------------------------------------------------------------|
B |------------------------------------------------------------------|
G |------------------------------------------------------------------|
D |-------------------------9--9-------------------------------------|
A |-2--2--2--2--2--2--2--2--7--7--9--6-/7--7--6-/7--7--6-/7--7--9--2-|
E |-0--0--0--0--0--0--0--0--------7--4-/5--5--4-/5--5--4-/5--5--7--0-|

Play 2x
E |------------------------------------------------------------------|
B |------------------------------------------------------------------|
G |------------------------------------------------------------------|
D |-3-/4--4--3-/4--4--4--4--3-/4--4--3-/4--4--4--4-----2-------------|
A |-1-/2--2--1-/2--2--2--2--1-/2--2--1-/2--2--2--2--2--0--2----------|
E |-------------------------------------------------0-----0----------|

Pre-chorus
E |------------------------------------------------------------------|
B |------------------------------------------------------------------|
G |------------------------------------------------------------------|
D |-2--2--2--2--2--2--2--2--2--2--2--2--2--2--2--2--2--4-------------|
A |-0--0--0--0--0--0--0--0--0--0--0--0--0--0--0--0--0--2-------------|
E |------------------------------------------------------------------|

Play 2x
E |----0--0--0--0----------------------------------------------------|
B |----0--0--0--0-----------5--5--4--4--------------------5--5--4----|
G |----2--2--2--1-----4--4--4--4--4--4--2--2--------4--4--4--4--4--4-|
D |----2--2--2--2-----4--4--4--4--4--4--2--2--2--2--4--4--4--4--4--4-|
A |----2--2--2--2-----2--2--2--2--2--2--0--0--2--2--2--2--2--2--2--2-|
E |-0--0--0--0--0--0--------------------------0--0-------------------|

Play 2x
E |------------------------------------------------------------------|
B |------------------------------------------------------------------|
G |------------------------------------------------------------------|
D |-------------------------------------4--4-------------------------|
A |-2--2--4--2--2--2--4--2--2------2----2--2-------------------------|
E |-0--0--0--0--0--0--0--0--0--2h3-----------------------------------|

Play 2x
E |------------------------------------------------------------------|
B |------------------------------------------------------------------|
G |------------------------------------------------------------------|
D |-------------------------9--9-------------------------------------|
A |-2--2--2--2--2--2--2--2--7--7--9--6-/7--7--6-/7--7--6-/7--7--9--2-|
E |-0--0--0--0--0--0--0--0--------7--4-/5--5--4-/5--5--4-/5--5--7--0-|

Play 2x
E |------------------------------------------------------------------|
B |------------------------------------------------------------------|
G |------------------------------------------------------------------|
D |-3-/4--4--3-/4--4--4--4--3-/4--4--3-/4--4--4--4-----2-------------|
A |-1-/2--2--1-/2--2--2--2--1-/2--2--1-/2--2--2--2--2--0--2----------|
E |-------------------------------------------------0-----0----------|

Pre-chorus
E |------------------------------------------------------------------|
B |------------------------------------------------------------------|
G |------------------------------------------------------------------|
D |-2--2--2--2--2--2--2--2--2--2--2--2--2--2--2--2--2--4-------------|
A |-0--0--0--0--0--0--0--0--0--0--0--0--0--0--0--0--0--2-------------|
E |------------------------------------------------------------------|

Solo
2x
E |------------------------------------------------------------------|
B |------------------------------------------------------------------|
G |------9------9------9------9------9--11b--11b--9--11--9--11--9----|
D |-9h11---9h11---9h11---9h11---9h11---------------------------------|
A |------------------------------------------------------------------|
E |------------------------------------------------------------------|

2x
E |------------------------------------------------------------------|
B |-12--10--9--10--9--10--12--10--9--10--9--10-----------------------|
G |------------------------------------------------------------------|
D |------------------------------------------------------------------|
A |------------------------------------------------------------------|
E |------------------------------------------------------------------|

Play 2x
E |------------------------------------------------------------------|
B |------------------------------------------------------------------|
G |------------------------------------------------------------------|
D |-3-/4--4--3-/4--4--4--4--3-/4--4--3-/4--4--4--4-----2-------------|
A |-1-/2--2--1-/2--2--2--2--1-/2--2--1-/2--2--2--2--2--0--2----------|
E |-------------------------------------------------0-----0----------|

Pre-chorus
E |------------------------------------------------------------------|
B |------------------------------------------------------------------|
G |------------------------------------------------------------------|
D |-2--2--2--2--2--2--2--2--2--2--2--2--2--2--2--2--2--4-------------|
A |-0--0--0--0--0--0--0--0--0--0--0--0--0--0--0--0--0--2-------------|
E |------------------------------------------------------------------|

Play 2x
E |----0--0--0--0----------------------------------------------------|
B |----0--0--0--0-----------5--5--4--4--------------------5--5--4----|
G |----2--2--2--1-----4--4--4--4--4--4--2--2--------4--4--4--4--4--4-|
D |----2--2--2--2-----4--4--4--4--4--4--2--2--2--2--4--4--4--4--4--4-|
A |----2--2--2--2-----2--2--2--2--2--2--0--0--2--2--2--2--2--2--2--2-|
E |-0--0--0--0--0--0--------------------------0--0-------------------|


E |------------------------------------------------------------------|
B |------------------------------------------------------------------|
G |------------------------------------------------------------------|
D |-------------------------------------4--4-------------------------|
A |-2--2--4--2--2--2--4--2--2------2----2--2-------------------------|
E |-0--0--0--0--0--0--0--0--0--2h3-----------------------------------|

E |------------------------------------------------------------------|
B |------------------------------------------------------------------|
G |------------------------------------------------------------------|
D |-------------------------------------4--4--2----------------------|
A |-2--2--4--2--2--2--4--2--2------2----2--2--2----------------------|
E |-0--0--0--0--0--0--0--0--0--2h3------------0----------------------|
            
Submit corrections

↑ Back to top | Tablatures and chords for acoustic guitar and electric guitar, ukulele, drums are parodies/interpretations of the original songs. You may use it for private study, scholarship, research or language learning purposes only