Home » E » Exploding Hearts »

Exploding Hearts - (Making) Teenage Faces Tabs

Artists:  A B C D E F G H I J K L M N O P Q R S T U V W X Y Z # 

(Making) Teenage Faces Tabs

(ver. 1) Click to play this song!
Exploding Hearts
MAKING TEENAGE FACES


Play 2x
E |------------------------------------------------------------------|
B |-9--9--9--9--9--9--9--9-------------------------------------------|
G |-9--9--9--9--9--9--9--9-------------------------------------------|
D |------------------------------------------------------------------|
A |------------------------------------------------------------------|
E |------------------------------------------------------------------|


PLay 3x
E |----------------7-----7-----------------7-----7-------------------|
B |-9--9--9--9--9-----9-----10-10----9--9-----9----------------------|
G |-9--9--9--9--9-----------------9--9--9----------------------------|
D |------------------------------------------------------------------|
A |------------------------------------------------------------------|
E |------------------------------------------------------------------|


lLay 1x
E |----------------7-----7--------------7--7-----7-------------------|
B |-9--9--9--9--9-----9-----10-10----9--------10---------------------|
G |-9--9--9--9--9-----------------9----------------------------------|
D |------------------------------------------------------------------|
A |------------------------------------------------------------------|
E |------------------------------------------------------------------|


Play 2x
E |-------------7--7--7--7--------------7--7--7--7-------------------|
B |-9--9--9--9--------------10-10-10-10------------------------------|
G |------------------------------------------------------------------|
D |------------------------------------------------------------------|
A |------------------------------------------------------------------|
E |------------------------------------------------------------------|

E |------------------------------------------------------------------|
B |-9--9--9--9--10-10-10-10------------------------------------------|
G |------------^Play 3 times then>---9--9--9--9--9--9--9--9----------|
D |------------------------------------------------------------------|
A |------------------------------------------------------------------|
E |------------------------------------------------------------------|


Verse 1  Play 3x
E |------------------------------------------------------------------|
B |------------------------------------------------------------------|
G |-9--9--9--9-------------------------------------------------------|
D |-9--9--9--9--9--9--9--9--7--7--7--7-----9--9--9-------------------|
A |-7--7--7--7--9--9--9--9--7--7--7--7-----9--9--9-------------------|
E |-------------7--7--7--7--5--5--5--5-----7--7--7-------------------|


Play 1x
E |------------------------------------------------------------------|
B |------------------------------------------------------------------|
G |------------------------------------------------------------------|
D |-7--7--7--7--7--7--7--7--9--9--9--9--9--9--9--9-------------------|
A |-7--7--7--7--7--7--7--7--9--9--9--9--9--9--9--9-------------------|
E |-5--5--5--5--5--5--5--5--7--7--7--7--7--7--7--7-------------------|


Chorus Play 4x
E |------------------------------------------------------------------|
B |------------------------------------------------------------------|
G |-9--9--9--9-------------------------------------------------------|
D |-9--9--9--9--9--9--9--9--7--7--7--7--9--9--9--9-------------------|
A |-7--7--7--7--9--9--9--9--7--7--7--7--9--9--9--9-------------------|
E |-------------7--7--7--7--5--5--5--5--7--7--7--7-------------------|


Verse 2 Play 2x (palm muted)
E |------------------------------------------------------------------|
B |------------------------------------------------------------------|
G |-9--9--9--9-------------------------------------------------------|
D |-9--9--9--9--9--9--9--9--7--7--7--7-----9--9--9-------------------|
A |-7--7--7--7--9--9--9--9--7--7--7--7-----9--9--9-------------------|
E |-------------7--7--7--7--5--5--5--5-----7--7--7-------------------|

Bridge

Play 3x
E |------------------------------------------------------------------|
B |------------------------------------------------------------------|
G |-------------9--9--9--9-------------------------------------------|
D |-7--7--7-----9--9--9--9--9--9--9--9-------------------------------|
A |-7--7--7-----7--7--7--7--9--9--9--9-------------------------------|
E |-5--5--5-----------------7--7--7--7-------------------------------|


Play 1x
E |------------------------------------------------------------------|
B |------------------------------------------------------------------|
G |------------------------------------------------------------------|
D |-7--7--7--7--7--7--7--7--9--9--9--9--9--9--9--9-------------------|
A |-7--7--7--7--7--7--7--7--9--9--9--9--9--9--9--9-------------------|
E |-5--5--5--5--5--5--5--5--7--7--7--7--7--7--7--7-------------------|


Play 4x over Chorus chords
E |------------------------------------------------------------------|
B |----7--9--10-9--7--7-/9-------------------------------------------|
G |-9-----------------------9--9--9--9-------------------------------|
D |------------------------------------------------------------------|
A |------------------------------------------------------------------|
E |------------------------------------------------------------------|


                   Play 3x then play>
E |---------------------------------|--------------------------------|
B |---------------------------------|--------------------------------|
G |-------------9--9-----9----------|--------------------------------|
D |-11-11-11-11-9--9-----9--9--9--9-|---7--7--7--7--9--9--9--9-------|
A |-11-11-11-11-7--7-----7--9--9--9-|---7--7--7--7--9--9--9--9-------|
E |-9--9--9--9--------------7--7--7-|---5--5--5--5--7--7--7--7-------|

E |------------------------------------------------------------------|
B |------------------------------------------------------------------|
G |-9--let ring-9--let ring------------------------------------------|
D |-9-----------9----------------------------------------------------|
A |-7-----------7----------------------------------------------------|
E |------------------------------------------------------------------|


Play 4x
E |------------------------------------------------------------------|
B |------------------------------------------------------------------|
G |-11-11-11-11------------------------------------------------------|
D |-11-11-11-11-11-11-11-11-9--9--9--9--11-11-11-11------------------|
A |-9--9--9--9--11-11-11-11-9--9--9--9--11-11-11-11------------------|
E |-------------9--9--9--9--7--7--7--7--9--9--9--9-------------------|


End
E |-------7-----------7-----------7----------------------------------|
B |-------7-----------7-----------7----------------------------------|
G |-11----8-----11----8-----11----8-----11---------------------------|
D |-11----9-----11----9-----11----9-----11---------------------------|
A |-9-----9-----9-----9-----9-----9-----9----------------------------|
E |-------7-----------7-----------7----------------------------------|
            
Submit corrections

↑ Back to top | Tablatures and chords for acoustic guitar and electric guitar, ukulele, drums are parodies/interpretations of the original songs. You may use it for private study, scholarship, research or language learning purposes only