Home » E » Exodus »

Exodus - Shudder To Think Tabs

Artists:  A B C D E F G H I J K L M N O P Q R S T U V W X Y Z # 

Shudder To Think Tabs

(ver. 1) Click to play this song!
Exodus
 Rating:
4.3/5 (6 votes)
                [Intro]
D|--------------------------------------------------|     D|-------------------------------------------------|
A|--------------------------------------------------|     A|-------------------------------------------------|
F|--------------------------------------------------|     F|-------------------------------------------------|
C|---/6------------6-----------/6-------------------| x 3 C|---/6--------------3-----------------------------|
G|-------5------5-----8---6--------5-----5-----8--6-|     G|-------5-----5-----------------------------------|
C|-0--------0----------------0--------0-----6-------|     C|-0--------0-----6-----1--0------------------/17\-|
            .                         .                                    .     

[Main Riff]
D|------------------------------------------------------------------------------------------------|
A|------------------------------------------------------------------------------------------------|
F|------------------------------------------------------------------------------------------------|
C|---/6-----------------3----------------------------/6--------------3----------------------------|  x 3
G|-------5-----5-----------------------------------------5-----5----------------------------------|
C|-0--------0-----6--0-----1--0--0--0--0--0--0--0--0--------0-----6-----1--0--0--0--0--0--0--0--0-|
            .        .           .  .  .  .  .  .           .                 .  .  .  .  .  .  .  

D|------------------------------------------------------------------------------------------------|
A|------------------------------------------------------------------------------------------------|
F|------------------------------------------------------------------------------------------------|
C|---/6-----------------3----------------------------/6--------------3----------------------------|
G|-------5-----5-----------------------------------------5-----5----------------------------------|
C|-0--------0-----6--0-----1--0--0--0--0--0--0--0--0--------0-----6-----1--0---------------/17\---|
            .        .           .  .  .  .  .  .           .                

[Verse]
D|---------------------------------------------------------------------------------------------------|
A|---------------------------------------------------------------------------------------------------|
F|---------------------------------------------------------------------------------------------------|
C|---------------------------------------------------/6-----------------3-----------------------3----|
G|-------------------------------------------------------5-----5-------------------------------------|
C|-0--0--0--0--0--0--0--0--0--0--0--0--0--0--0--0--0--------0-----6--0-----1--0--0--0--0--0--0-----1-|
      .  .  .  .  .  .  .  .  .  .  .  .  .  .  .           .        .           .  .  .  .  . 

D|---------------------------------------------------------------------------------------------------|
A|---------------------------------------------------------------------------------------------------|
F|---------------------------------------------------------------------------------------------------|
C|---------------------------------------------------/6--------------3-----------------------3-------|
G|-------------------------------------------------------5-----5-------------------------------------|
C|-0--0--0--0--0--0--0--0--0--0--0--0--0--0--0--0--0--------0-----6-----1--0--0--0--0--0--0-----1--0-|
      .  .  .  .  .  .  .  .  .  .  .  .  .  .  .           .                 .  .  .  .  .  

D|---------------------------------------------------------------------------------------------------|
A|---------------------------------------------------------------------------------------------------|
F|---------------------------------------------------------------------------------------------------|
C|---------------------------------------------------/6-----------------3-----------------------3----|
G|-------------------------------------------------------5-----5-------------------------------------|
C|-0--0--0--0--0--0--0--0--0--0--0--0--0--0--0--0--0--------0-----6--0-----1--0--0--0--0--0--0-----1-|
   .  .  .  .  .  .  .  .  .  .  .  .  .  .  .  .           .        .           .  .  .  .  . 

D|---------------------------------------------------------------------------------------------------|
A|---------------------------------------------------------------------------------------------------|
F|---------------------------------------------------------------------------------------------------|
C|---------------------------------------------------/6--------------3-------------------------------|
G|-------------------------------------------------------5-----5-------------------------------------|
C|-0--0--0--0--0--0--0--0--0--0--0--0--0--0--0--0--0--------0-----6-----1--0------------------/17\---|
      .  .  .  .  .  .  .  .  .  .  .  .  .  .  .           .               

[Chorus]
D|------------------------------------------------------------------------------------------------|
A|------------------------------------------------------------------------------------------------|
F|------------------------------------------------------------------------------------------------|
C|------------------------------------------------------------------------------------------------|
G|-0-----0-----3--1--0--1--0-----0-----3--1--0--1--3-----3-----3--2--0--2--6-----6-----6--5--3--5-|
C|-0--0--0-----3--1--0--1--0--0--0-----3--1--0--1--3--3--3-----3--2--0--2--6--6--6-----6--5--3--5-|
      .                       .                       .                       .                  

D|------------------------------------------------------------------------------------------------|
A|------------------------------------------------------------------------------------------------|
F|------------------------------------------------------------------------------------------------|
C|------------------------------------------------------------------------------------------------|
G|-0-----0-----3--1--0--1--0-----0-----3--1--0--1--3--------3--------3-----6--------6--------6----|
C|-0--0--0-----3--1--0--1--0--0--0-----3--1--0--1--3--3--3--3--3--3--3--3--6--6--6--6--6--6--6--6-|
      .                       .                       .  .     .  .     .     .  .     .  .     .    

D|-------------------------------------------------|
A|-------------------------------------------------|
F|-------------------------------------------------|
C|---/6--------------3-----------------------------|
G|-------5-----5-----------------------------------|
C|-0--------0-----6-----1--0------------------/17\-|
            .                 

[Main Riff]
D|------------------------------------------------------------------------------------------------|
A|------------------------------------------------------------------------------------------------|
F|------------------------------------------------------------------------------------------------|
C|---/6-----------------3----------------------------/6--------------3----------------------------|  x 3
G|-------5-----5-----------------------------------------5-----5----------------------------------|
C|-0--------0-----6--0-----1--0--0--0--0--0--0--0--0--------0-----6-----1--0--0--0--0--0--0--0--0-|
            .        .           .  .  .  .  .  .           .                 .  .  .  .  .  .  .  

D|------------------------------------------------------------------------------------------------|
A|------------------------------------------------------------------------------------------------|
F|------------------------------------------------------------------------------------------------|
C|---/6-----------------3----------------------------/6--------------3----------------------------|
G|-------5-----5-----------------------------------------5-----5----------------------------------|
C|-0--------0-----6--0-----1--0--0--0--0--0--0--0--0--------0-----6-----1--0---------------/17\---|
            .        .           .  .  .  .  .  .           .                

[Verse]
D|---------------------------------------------------------------------------------------------------|
A|---------------------------------------------------------------------------------------------------|
F|---------------------------------------------------------------------------------------------------|
C|---------------------------------------------------/6-----------------3-----------------------3----|
G|-------------------------------------------------------5-----5-------------------------------------|
C|-0--0--0--0--0--0--0--0--0--0--0--0--0--0--0--0--0--------0-----6--0-----1--0--0--0--0--0--0-----1-|
      .  .  .  .  .  .  .  .  .  .  .  .  .  .  .           .        .           .  .  .  .  . 

D|---------------------------------------------------------------------------------------------------|
A|---------------------------------------------------------------------------------------------------|
F|---------------------------------------------------------------------------------------------------|
C|---------------------------------------------------/6--------------3-----------------------3-------|
G|-------------------------------------------------------5-----5-------------------------------------|
C|-0--0--0--0--0--0--0--0--0--0--0--0--0--0--0--0--0--------0-----6-----1--0--0--0--0--0--0-----1--0-|
      .  .  .  .  .  .  .  .  .  .  .  .  .  .  .           .                 .  .  .  .  .  

D|---------------------------------------------------------------------------------------------------|
A|---------------------------------------------------------------------------------------------------|
F|---------------------------------------------------------------------------------------------------|
C|---------------------------------------------------/6-----------------3-----------------------3----|
G|-------------------------------------------------------5-----5-------------------------------------|
C|-0--0--0--0--0--0--0--0--0--0--0--0--0--0--0--0--0--------0-----6--0-----1--0--0--0--0--0--0-----1-|
   .  .  .  .  .  .  .  .  .  .  .  .  .  .  .  .           .        .           .  .  .  .  . 

D|---------------------------------------------------------------------------------------------------|
A|---------------------------------------------------------------------------------------------------|
F|---------------------------------------------------------------------------------------------------|
C|---------------------------------------------------/6--------------3-------------------------------|
G|-------------------------------------------------------5-----5-------------------------------------|
C|-0--0--0--0--0--0--0--0--0--0--0--0--0--0--0--0--0--------0-----6-----1--0------------------/17\---|
      .  .  .  .  .  .  .  .  .  .  .  .  .  .  .           .               

[Chorus]
D|------------------------------------------------------------------------------------------------|
A|------------------------------------------------------------------------------------------------|
F|------------------------------------------------------------------------------------------------|
C|------------------------------------------------------------------------------------------------|
G|-0-----0-----3--1--0--1--0-----0-----3--1--0--1--3-----3-----3--2--0--2--6-----6-----6--5--3--5-|
C|-0--0--0-----3--1--0--1--0--0--0-----3--1--0--1--3--3--3-----3--2--0--2--6--6--6-----6--5--3--5-|
      .                       .                       .                       .                  

D|------------------------------------------------------------------------------------------------|
A|------------------------------------------------------------------------------------------------|
F|------------------------------------------------------------------------------------------------|
C|------------------------------------------------------------------------------------------------|
G|-0-----0-----3--1--0--1--0-----0-----3--1--0--1--3--------3--------3-----6--------6--------6----|
C|-0--0--0-----3--1--0--1--0--0--0-----3--1--0--1--3--3--3--3--3--3--3--3--6--6--6--6--6--6--6--6-|
      .                       .                       .  .     .  .     .     .  .     .  .     .    

D|---------------------------|
A|---------------------------|
F|---------------------------|
C|---/6--------------3-------|
G|-------5-----5-------------|
C|-0--------0-----6-----1--0-|
            .                 

[Break]
D|-------------------------------------------------------------------------------------------------|
A|-------------------------------------------------------------------------------------------------|
F|-------------------------------------------------------------------------------------------------|
C|---------------------------------------------------------------------------------/8--7-----------|  x 5
G|-0--------3--------6--------3--------1-----1//3--0--------3--------6--------3-----------10--9--6-|
C|-0--0--0--3--0--0--6--0--0--3--0--0--1--0--1//3--0--0--0--3--0--0--6--0--0--3--0-----------------|
      .  .     .  .     .  .     .  .     .           .  .     .  .     .  .     . 

D|-------------------------------------------------------------------------------------------------|
A|-------------------------------------------------------------------------------------------------|
F|-------------------------------------------------------------------------------------------------|
C|-------------------------------------------------------------------------------------------------|
G|-0--------3--------6--------3--------1-----1//3--0--------3--------6-----------------------------|
C|-0--0--0--3--0--0--6--0--0--3--0--0--1--0--1//3--0--0--0--3--0--0--6-----------------------------|
      .  .     .  .     .  .     .  .     .           .  .     .  .     

D|-------------------------------------------------------------------------------------------------|
A|-------------------------------------------------------------------------------------------------|
F|-------------------------------------------------------------------------------------------------|
C|-------------------------------------------------------------------------------------------------| 
G|-0--------3--------6--------3--------1-----1//3--0--------3--------6-----------------------------|
C|-0--0--0--3--0--0--6--0--0--3--0--0--1--0--1//3--0--0--0--3--0--0--6--0--0--0--0--0--0--0--0--0--|
      .  .     .  .     .  .     .  .     .           .  .     .  .     .  .  .  .  .  .  .  .  .
 
D|-------------------------------------------------------------------------------------------------|
A|-------------------------------------------------------------------------------------------------|
F|-------------------------------------------------------------------------------------------------|
C|-------------------------------------------------------------------------------------------------| 
G|-0--------3--------6--------3--------1-----1//3--0--------6-----3--0-----------------------------|
C|-0--0--0--3--0--0--6--0--0--3--0--0--1--0--1//3--0--0--0--6--0--3--0--0--0--0--0--0--0--0--0--0--|
      .  .     .  .     .  .     .  .     .           .  .     .        .  .  .  .  .  .  .  .  .

D|-------------------------------------------------------------------------------------------------|
A|-------------------------------------------------------------------------------------------------|
F|-------------------------------------------------------------------------------------------------|
C|-------------------------------------------------------------------------------------------------| 
G|-0--------3--------6--------3--------1-----1//3--0--------3--------6-----------------------------|
C|-0--0--0--3--0--0--6--0--0--3--0--0--1--0--1//3--0--0--0--3--0--0--6--0--0--0--0--0--0--0--0--0--|
      .  .     .  .     .  .     .  .     .           .  .     .  .     .  .  .  .  .  .  .  .  .

D|-------------------------------------------------------------------------------------------------|
A|-------------------------------------------------------------------------------------------------|
F|-------------------------------------------------------------------------------------------------|
C|---------------------------------------------------/6--------------3-----------------------------| 
G|-0--------3--------6--------3--------1-----1//3--0-----5-----5-----------------------------------|
C|-0--0--0--3--0--0--6--0--0--3--0--0--1--0--1//3--0--------0-----6-----1--0-----------------------|
      .  .     .  .     .  .     .  .     .                 .     .     

[Verse]
D|---------------------------------------------------------------------------------------------------|
A|---------------------------------------------------------------------------------------------------|
F|---------------------------------------------------------------------------------------------------|
C|---------------------------------------------------/6-----------------3-----------------------3----|
G|-------------------------------------------------------5-----5-------------------------------------|
C|-0--0--0--0--0--0--0--0--0--0--0--0--0--0--0--0--0--------0-----6--0-----1--0--0--0--0--0--0-----1-|
      .  .  .  .  .  .  .  .  .  .  .  .  .  .  .           .        .           .  .  .  .  . 

D|---------------------------------------------------------------------------------------------------|
A|---------------------------------------------------------------------------------------------------|
F|---------------------------------------------------------------------------------------------------|
C|---------------------------------------------------/6--------------3-----------------------3-------|
G|-------------------------------------------------------5-----5-------------------------------------|
C|-0--0--0--0--0--0--0--0--0--0--0--0--0--0--0--0--0--------0-----6-----1--0--0--0--0--0--0-----1--0-|
      .  .  .  .  .  .  .  .  .  .  .  .  .  .  .           .                 .  .  .  .  .  

D|---------------------------------------------------------------------------------------------------|
A|---------------------------------------------------------------------------------------------------|
F|---------------------------------------------------------------------------------------------------|
C|---------------------------------------------------/6-----------------3-----------------------3----|
G|-------------------------------------------------------5-----5-------------------------------------|
C|-0--0--0--0--0--0--0--0--0--0--0--0--0--0--0--0--0--------0-----6--0-----1--0--0--0--0--0--0-----1-|
   .  .  .  .  .  .  .  .  .  .  .  .  .  .  .  .           .        .           .  .  .  .  . 

D|---------------------------------------------------------------------------------------------------|
A|---------------------------------------------------------------------------------------------------|
F|---------------------------------------------------------------------------------------------------|
C|---------------------------------------------------/6--------------3-------------------------------|
G|-------------------------------------------------------5-----5-------------------------------------|
C|-0--0--0--0--0--0--0--0--0--0--0--0--0--0--0--0--0--------0-----6-----1--0------------------/17\---|
      .  .  .  .  .  .  .  .  .  .  .  .  .  .  .           .               

[Chorus]
D|------------------------------------------------------------------------------------------------|
A|------------------------------------------------------------------------------------------------|
F|------------------------------------------------------------------------------------------------|
C|------------------------------------------------------------------------------------------------|
G|-0-----0-----3--1--0--1--0-----0-----3--1--0--1--3-----3-----3--2--0--2--6-----6-----6--5--3--5-|
C|-0--0--0-----3--1--0--1--0--0--0-----3--1--0--1--3--3--3-----3--2--0--2--6--6--6-----6--5--3--5-|
      .                       .                       .                       .                  

D|------------------------------------------------------------------------------------------------|
A|------------------------------------------------------------------------------------------------|
F|------------------------------------------------------------------------------------------------|
C|------------------------------------------------------------------------------------------------|
G|-0-----0-----3--1--0--1--0-----0-----3--1--0--1--3--------3--------3-----6--------6--------6----|
C|-0--0--0-----3--1--0--1--0--0--0-----3--1--0--1--3--3--3--3--3--3--3--3--6--6--6--6--6--6--6--6-|
      .                       .                       .  .     .  .     .     .  .     .  .     .    

D|------------------------------------------------------------------------------------------------|
A|------------------------------------------------------------------------------------------------|
F|------------------------------------------------------------------------------------------------|
C|------------------------------------------------------------------------------------------------|
G|-0-----0-----3--1--0--1--0-----0-----3--1--0--1--3-----3-----3--2--0--2--6-----6-----6--5--3--5-|
C|-0--0--0-----3--1--0--1--0--0--0-----3--1--0--1--3--3--3-----3--2--0--2--6--6--6-----6--5--3--5-|
      .                       .                       .                       .                  

D|------------------------------------------------------------------------------------------------|
A|------------------------------------------------------------------------------------------------|
F|------------------------------------------------------------------------------------------------|
C|------------------------------------------------------------------------------------------------|
G|-0-----0-----3--1--0--1--0-----0-----3--1--0--1--3--------3--------3-----6--------6--------6----|
C|-0--0--0-----3--1--0--1--0--0--0-----3--1--0--1--3--3--3--3--3--3--3--3--6--6--6--6--6--6--6--6-|
      .                       .                       .  .     .  .     .     .  .     .  .     .    

D|-------------------------------------------------|
A|-------------------------------------------------|
F|-------------------------------------------------|
C|---/6--------------3-----------------------------|
G|-------5-----5-----------------------------------|
C|-0--------0-----6-----1--0------------------/17\-|
            .                 

[Main Riff]
D|------------------------------------------------------------------------------------------------|
A|------------------------------------------------------------------------------------------------|
F|------------------------------------------------------------------------------------------------|
C|---/6-----------------3----------------------------/6--------------3----------------------------|  x 3
G|-------5-----5-----------------------------------------5-----5----------------------------------|
C|-0--------0-----6--0-----1--0--0--0--0--0--0--0--0--------0-----6-----1--0--0--0--0--0--0--0--0-|
            .        .           .  .  .  .  .  .           .                 .  .  .  .  .  .  .  

D|------------------------------------------------------------------------------------------------|
A|------------------------------------------------------------------------------------------------|
F|------------------------------------------------------------------------------------------------|
C|---/6-----------------3----------------------------/6--------------3----------------------------|
G|-------5-----5-----------------------------------------5-----5----------------------------------|
C|-0--------0-----6--0-----1--0--0--0--0--0--0--0--0--------0-----6-----1--0----------------------|
            .        .           .  .  .  .  .  .           .            
Submit corrections

↑ Back to top | Tablatures and chords for acoustic guitar and electric guitar, ukulele, drums are parodies/interpretations of the original songs. You may use it for private study, scholarship, research or language learning purposes only