» » »

Exo - The Eve Bass

Artists:  A B C D E F G H I J K L M N O P Q R S T U V W X Y Z # 

The Eve Bass

(ver. 1) Click to play this song!
Exo
 Rating:
4.3/5 (16 votes)

 The Eve lessons Tabs too difficult? Try these video lessons and learn fast
 
                INTRO/VERSE 1:
G|---------------------------------------------------------------------|
D|---------------------------------------------------------------------|
A|-33-33-66--------233-33-6-------1133-33-66---------233-33-66---------|
E|----------44-44-----------44-44--------------44-44-----------44-44---|

PRE-CHORUS:
G|----------------------------------------------------|
D|----------------------------------------------------|
A|-3~--5-6------23~--5-6------------------------------|
E|---------4~------------4~---------------------------|

CHORUS:
G|----------------------------------------------------|
D|----------------------------------------------------|
A|-33-33-45653----------233-33-45653------------------|
E|-------------54-44-44--------------54-44-44---------|

G|----------------------------------------------------|
D|----------------------------------------------------|
A|--3~--5-6-----3~--5-6-------------------------------|
E|----------4~----------4~----------------------------|

VERSE 2:
G|----------------------------------|
D|----------------------------------|
A|-233-33-66--------233-33-6--------|
E|-----------44-44-----------44-44—-|

PRE-CHORUS:
G|----------------------------------|
D|----------------------------------|
A|--3~--5-6-----3~--5-6-------------|
E|----------4~----------4-----------|

CHORUS:
G|----------------------------------------------------|
D|----------------------------------------------------|
A|-33-33-45653----------111133-33-45653---------------|
E|-------------54-44-44-----------------54-44-44------|

G|----------------------------------------------------|
D|----------------------------------------------------|
A|--3~--5-6-----3~--5-6-------------------------------|
E|----------4~----------4~----------------------------|

No Bass on bridge

OUTRO/CHORUS:
G|----------------------------------------------------|
D|----------------------------------------------------|
A|-33-33-45653----------111133-33-45653---------------|
E|-------------54-44-44-----------------54-44-44------|

G|----------------------------------------------------|
D|----------------------------------------------------|
A|--3~--5-6-----3~--5-6-------------------------------|
E|----------4~----------4~----------------------------|
            
Submit corrections


        The Eve lessons Hard to play? Try these video lessons and learn fast The Eve lessons
        
↑ Back to top | Tablatures and chords for acoustic guitar and electric guitar, ukulele, drums are parodies/interpretations of the original songs. You may use it for private study, scholarship, research or language learning purposes only