» » »

Every Time I Die - Fear And Trembling Tabs

Artists:  A B C D E F G H I J K L M N O P Q R S T U V W X Y Z # 

Fear And Trembling Tabs

(ver. 1) Click to play this song!
Every Time I Die
 Rating:
4.3/5 (20 votes)

 Fear And Trembling  lessons Tabs too difficult? Try these video lessons and learn fast
 
                [Intro] GTR01:

E|-------------------------3-------------------------------3--------|
B|---3---------------3-------0-------3---------------3-------0------|
G|-----3-----3/6-------3-0-----3-------3-----3/6-------3-0-----3----|
D|------------------------------------------------------------------|
A|------------------------------------------------------------------|
A|-2-----0-2-----0-2-------------0-2-----0-2-----0-2----------------|
                                               *

E|-------------------------3-------------------------------3--------|
B|---3---------------3-------0-------3---------------3-------0------|
G|-----3-----3/6-------3-0-----3-------3-----3/6-------3-0-----3----|
D|------------------------------------------------------------------|
A|------------------------------------------------------------------|
A|-2-----0-2-----0-2-------------0-2-----0-2-----0-2----------------|
                                               *


[Intro] GTR02:

E|-------------------------------------------------------------------------------------|
B|-------------------------------------------------------------------------------------|
G|-------------------------------------------------------------------------------------|
D|-------------------------------------------------------------------------------------|
A|-------------------------------------------------------------------------------------|
A|-------------------------------------------------------------------------------------|


E|----------------------------------15-----------------------------------------15------|
B|----15--------------------15---------0---------15--------------------15---------0----|
G|-------15------15/18---------15-0------15---------15------15/18---------15-0------15-|
D|-------------------------------------------------------------------------------------|
A|-------------------------------------------------------------------------------------|
A|-14-------0-14-------0-14-----------------0-14-------0-14-------0-14-----------------|
                                                               *


[Interlude] GTR01:

E|-----------------------------------------------------------------------|
B|-----------------------------------------------------------------------|
G|-----------------------------------------------------------------------|
D|-----------------------------------------------------------------------|
A|-----------------------------------------------------------------------|
A|-0-2-2-2-3-3-6-6-0-0-2-2-3-3-6-6-0-0-0-0-2-2-3-3-6-6-0-2-2-2-3-3-6-6-0-|
                     .               . . .             .

[Interlude] GTR01:

E|-----------------------------------------------------------------------|
B|-----------------------------------------------------------------------|
G|-----------------------------------------------------------------------|
D|-----------------------------------------------------------------------|
A|-----------------------------------------------------------------------|
A|-0-2---------------0---------------0-0-0-------------0-----------------|
                     .               . . .             .



[Main Riff Both] GTRs:

E|-------------------------------------------|
B|-------------------------------------------|
G|-------------------------------------------|
D|-------------------------------------------|
A|-------------------------------------------|
A|-12-12-12-11-11-5-5-6-12-12-12-11-11-5-5-6-|


E|---------------------------------------------------------------------|
B|---------------------------------------------------------------------|
G|---------------------------------------------------------------------|
D|---------------------------------------------------------------------|
A|---------------------------------------------------------------------|
A|-2-2-2-3-3-6-6-0-0-2-2-3-3-6-6-0-0-0-0-2-2-3-3-6-6-0-2-2-2-3-3-6-6-0-|
                   .               . . .             .


E|----------------------|
B|----------------------|
G|----------------------|
D|----------------------|
A|----------------------|
A|-12-12-12-11-11-5-5-6-|


E|---------------------------------------------------------------------|
B|---------------------------------------------------------------------|
G|---------------------------------------------------------------------|
D|---------------------------------------------------------------------|
A|---------------------------------------------------------------------|
A|-2-2-2-3-3-6-6-0-0-2-2-3-3-6-6-0-0-0-0-2-2-3-3-6-6-0-2-2-2-3-3-6-6-0-|
                   .               . . .             .


E|-----------------------|
B|-----------------10----|
G|--------------12----12-|
D|-12-11-8---------------|
A|-13-12-9---------------|
A|------------0----------|


E|----------------------|
B|----------------------|
G|----------------------|
D|----------------------|
A|----------------------|
A|-12-12-12-11-11-5-5-6-|


E|---------------------------------------------------------------------|
B|---------------------------------------------------------------------|
G|---------------------------------------------------------------------|
D|---------------------------------------------------------------------|
A|---------------------------------------------------------------------|
A|-2-2-2-3-3-6-6-0-0-2-2-3-3-6-6-0-0-0-0-2-2-3-3-6-6-0-2-2-2-3-3-6-6-0-|
                   .               . . .             .

E|----------------------|
B|----------------------|
G|----------------------|
D|----------------------|
A|----------------------|
A|-12-12-12-11-11-5-5-6-|


E|---------------------------------------------------------------------|
B|---------------------------------------------------------------------|
G|---------------------------------------------------------------------|
D|---------------------------------------------------------------------|
A|---------------------------------------------------------------------|
A|-2-2-2-3-3-6-6-0-0-2-2-3-3-6-6-0-0-0-0-2-2-3-3-6-6-0-2-2-2-3-3-6-6-0-|
                   .               . . .             .

E|-----------------------|
B|-----------------10----|
G|--------------12----12-|
D|-12-11-8---------------|
A|-13-12-9---------------|
A|------------0----------|


E|-------------------------------------------|
B|-------------------------------------------|
G|-------------------------------------------|
D|-------------------------------------------|
A|-------------------------------------------|
A|-12-12-12-11-11-5-5-6-12-12-12-11-11-5-5-6-|


E|-------------------------------------------|
B|-------------------------------------------|
G|-------------------------------------------|
D|-------------------------------------------|
A|-------------------------------------------|
A|-12-12-12-11-11-5-5-6-12-12-12-11-11-5-5-6-|



[Breakdown] Part 01 Both GTRs:

E|-------------------------------------------|
B|------10-----------10------10--------------|
G|---12-----------12------12-----------------|
D|--------------------------------12-11-8----|
A|--------------------------------13-12-9----|
A|-0-------0-12-0-------0-------0------------|


E|-------------------------------------------|
B|------10-----------10------10--------------|
G|---12-----------12------12-----------------|
D|--------------------------------12-11-8----|
A|--------------------------------13-12-9----|
A|-0-------0-12-0-------0-------0------------|


E|-------------------------------------------|
B|------10-----------10------10--------------|
G|---12-----------12------12-----------------|
D|--------------------------------12-11-8----|
A|--------------------------------13-12-9----|
A|-0-------0-12-0-------0-------0------------|


E|-------------------------------------------------|
B|------10-----------10------10--------------------|
G|---12-----------12------12-----------------------|
D|--------------------------------12-11-9----12-9--|
A|--------------------------------13-12-10-0-13-10-|
A|-0-------0-12-0-------0-------0------------------|



[Breakdown] Part 02 Both GTRs:

E|-------------------------------------------|
B|------10-----------10------10--------------|
G|---12-----------12------12-----------------|
D|--------------------------------12-11-8----|
A|-------------------------------------------|
A|-0-------0-12-0-------0-------0-13-12-9----|


E|-------------------------------------------|
B|------10-----------10------10--------------|
G|---12-----------12------12-----------------|
D|--------------------------------12-11-9--8-|
A|-------------------------------------------|
A|-0-------0-12-0-------0-------0-13-12-10-9-|



[Breakdown] Part 03 Both GTRs:

E|-----------------------------------------------------------------------|
B|-----------------------------------------------------------------------|
G|-----------------------------------------------------------------------|
D|-----------------------------------------------------------------------|
A|-----------------------------------------------------------------------|
A|-0-3-5-0-5-0-3-5-0-3-5-0-6-5-2----0-3-5-0-5-0-3-5-0-3-5-0-6-5-2----0-0-|
                               *

E|---------------------------------------------------------------------------------------|
B|---------------------------------------------------------------------------------------|
G|---------------------------------------------------------------------------------------|
D|----------------------------------------------------------------------12-11-9----12-9--|
A|----------------------------------------------------------------------13-12-10-0-13-10-|
A|-0-10-12-0-12-10----0-10-12-0-13-12-9----0-10-12-0-12-10----0-10-12-0------------------|



[Outro] Both GTRs:

E|-------------------------------------------|
B|------15-----------15------15--------------|
G|---17-----------17------17-----------------|
D|--------------------------------12-11-8----|
A|-------------------------------------------|
A|-0-------0-12-0-------0-------0-13-12-9----|


E|---------------------------------------------------|
B|------15-----------15------15----------------------|
G|---17-----------17------17-------------------------|
D|--------------------------------12-11-9----12-9----|
A|--------------------------------13-12-10-0-13-10---|
A|-0-------0-12-0-------0-------0------------------0-|            
Submit corrections


        Fear And Trembling  lessons Hard to play? Try these video lessons and learn fast Fear And Trembling  lessons
        
↑ Back to top | Tablatures and chords for acoustic guitar and electric guitar, ukulele, drums are parodies/interpretations of the original songs. You may use it for private study, scholarship, research or language learning purposes only