Home » E » Every Avenue »

Every Avenue - Between You And I Tabs

Artists:  A B C D E F G H I J K L M N O P Q R S T U V W X Y Z # 

Between You And I Tabs

(ver. 1) Click to play this song!
Every Avenue
 Rating:
4.2/5 (5 votes)
                -------------------------------------------------------------------------------
-------------------------------------------------------------------------------

This is a tab I did by Ear for the song "between you and I" by Every Avenue. 
Its About 98.99 % accurate. 
Standard tuning . 
Easy Song. If any questions Email me and also please RATE! Thanks
-David ..=]

Chord layout
  F         G           Am          C
e|1---------3------------0----------0----|
B|1---------3------------1----------1----|
G|2---------0------------2----------0----|
D|3---------0------------2----------2----|
A|3---------2------------0----------3----|
E|1---------3------------0----------0----|
Tuning:Standard

Intro: 2x
e|---------------------------------------------------------------------------|
B|---1------1------3-----3-------1--------1-------1--------1-----------------|
G|---2------2------0-----0-------2--------2-------2--------2-----------------|
D|-------------------------------------2----------------2--------------------|
A|-----3-------------2-------0-----------------0-----------------------------|
E|-1-----------3-------------------------------------------------------------|


Part 1 Verse 
   F          G             Am
e|---------------------------------------------------------------------------|
B|---1------1------3-----3-------1--------1-------1--------1-----------------|
G|---2------2------0-----0-------2--------2-------2--------2-----------------|
D|-------------------------------------2----------------2--------------------|
A|-----3-------------2-------0-----------------0-----------------------------|
E|-1-----------3-------------------------------------------------------------|

Part 2 verse (**starts on "I'll soon be tucked away underneath your bed"**) 
  F            G             C        G       Am                 
e|---------------------------------------------------------------------------|
B|---1------1------3-----3-------1--------3-------1--------1-----------------|
G|---2------2------0-----0-------0--------0-------2--------2-----------------|
D|------------------------------------------------------2--------------------|
A|-----3-------------2-------3---------2-------0-----------------------------|
E|-1-----------3-------------------------------------------------------------|

Part 3 verse (**where you gave your self to me ,where I gave myself to you**)
  F            G           Am 
e|---------------------------------------------------------------------------|
B|---1------1------3-----3-------1--------1-------1--------1-----------------|
G|---2------2------0-----0-------2--------2-------2--------2-----------------|
D|-------------------------------------2----------------2--------------------|
A|-----3-------------2-------0-----------------0-----------------------------|
E|-1-----------3-------------------------------------------------------------|
   F           G                 C  <------(TO YOU)
e|---------------------------------------------------------------------------|
B|---1------1------3-----3-------1-------------------------------------------|
G|---2------2------0-----0-------0-------------------------------------------|
D|---------------------------------------------------------------------------|
A|-----3-------------2-----------3-------------------------------------------|
E|-1-----------3-------------------------------------------------------------|


Chorus:Strum Or pick

C        G          Am      G
Maybe it's all for the best,
 C                    G      Am       G
But I just don't see any good in this, no.
C         G                 Am   G
Maybe we'll find something bett er
         C
But the lovers that leave us
    G                Am    G
Will always hold the place


**CONTINUE VERSE RIFFS FOR REST AND CHORDS FOR CHORUS, LYRICS ARE LISTED BELOW**

Would you believe me if I said I was sorry
The question wasn't mean to hurt,
It was just my fear of losing you.
And now you're filling all the space that surrounds you

I'll soon be tucked away underneath your bed
Where you gave yourself to me.
Where I gave myself to you.

Maybe it's all for the best,
But I just don't see any good in this, no.
Maybe we'll find something better
But the lovers that leave us
Will always hold the place

Maybe it was wrong of me to think I could keep you
And maybe it's the last few drinks
Taking over my mouth and all I've been thinking
I want you to know that I am fine here without you
But I can't bring myself to lie to you.
And since we're being honest, I feel I should tell you
I've been filling up the empty space between you and I

Between you and I, she could never compare to you
Between you and I, I still keep your pictures underneath my bed
Where she gives herself to me.
Where I give myself to you.

Maybe it's all for the best,
But I just don't see any good in this, no.
Maybe we'll find something better
But the lovers that leave us
Will always hold the place, oh...

Yeah...

Maybe it's all for the best,
I just don't see any good in this, no.
Maybe we'll find something better
But the lovers that leave us
Will always hold the place
Yeah the lovers that leave us
Will always hold the place
            
Submit corrections

↑ Back to top | Tablatures and chords for acoustic guitar and electric guitar, ukulele, drums are parodies/interpretations of the original songs. You may use it for private study, scholarship, research or language learning purposes only