Home » E » Everclear »

Everclear - Broken Tabs

Artists:  A B C D E F G H I J K L M N O P Q R S T U V W X Y Z # 

Broken Tabs

(ver. 1) Click to play this song!
Everclear
 Rating:
4/5 (4 votes)
                

P Pluck

Standard Tuning

---------|------------------|--|----------------------------------------------|
---------|------------------|--|----------------------------------------------|
---------|-3---5---5----0---|--|----------------------------------------------|
---------|-3---3---3----3---|--|----------------------------------------------|
---------|------------------|--|----------------------------------------------|
---------|------------------|--|----------------------------------------------|
    Intro  P   P   P    P

---------|--------------1------------1---|--|---------------------------------|
---------|--------------1--1------1--1---|--|---------------------------------|
---------|-----------------0------0------|--|---------------------------------|
---------|------------3---------3--------|--|---------------------------------|
---------|----------1---------3----------|--|---------------------------------|
---------|-3--4--5-----------------------|--|---------------------------------|
          Verse         P  P      P  P

---------|----------------------------------------|---------------------------|
---------|----------------6---------6----------6--|---------------------------|
---------|--------------5----5--------5------5----|---------------------------|
---------|------------8-----------5--------5------|---------------------------|
---------|----------8-----------6--------3--------|---------------------------|
---------|-3--4--5--------------------------------|---------------------------|
          Verse Out

---------|-x---x----|--|------------------------------------------------------|
---------|-6---6----|--|------------------------------------------------------|
---------|-5---5----|--|------------------------------------------------------|
---------|-5---3----|--|------------------------------------------------------|
---------|----------|--|------------------------------------------------------|
---------|----------|--|------------------------------------------------------|
  Chorus "...Love" Pick Chords

---------|-x-x-x--x-x---x--x---|--|-------------------------------------------|
---------|-6-6-6--3-3/6-6--6---|--|-------------------------------------------|
---------|-7-7-7--5-5/7-7--7---|--|-------------------------------------------|
---------|---------------------|--|-------------------------------------------|
---------|---------------------|--|-------------------------------------------|
---------|---------------------|--|-------------------------------------------|
          Interlude/Bridge          End Song w/ Verse Riff
            
Submit corrections

↑ Back to top | Tablatures and chords for acoustic guitar and electric guitar, ukulele, drums are parodies/interpretations of the original songs. You may use it for private study, scholarship, research or language learning purposes only