» » »

Europe - War Of Kings Tabs

Artists:  A B C D E F G H I J K L M N O P Q R S T U V W X Y Z # 

War Of Kings Tabs

(ver. 1) Click to play this song!
Europe
 Rating:
4.4/5 (5 votes)

 War Of Kings lessons Tabs too difficult? Try these video lessons and learn fast
 
                [Intro sound]
e|------------------------------|
B|------------------------------|
G|-5----------------------------|
D|-5----------------------------|
A|-3----------------------------|
E|------------------------------|


[Main Riff]
e|------------------------------------------------|
B|------------------------------------------------|
G|------------------------------------------------|
D|------------------------------------------------|
A|------------------------------------------------|
E|-0-----3--5--3----6--7--6----5--6--5----5---3---| 4x


[Verse 1]
e|------------------------------------------------|
B|------------------------------------------------|
G|------------------------------------------------|
D|------------------------------------------------|
A|------------------------------------------------|
E|-0-----3--5--3----6--7--6----5--6--5----5---3---| 4x


[Bridge/Interlude]
e|--------------------------5-------5------------|
B|-------8------7-------------7---7---7---6------|
G|-----------9-----9--4/7-------7-------7--------|
D|----9------------------------------------------|
A|-7---------------------------------------------|
E|-----------------------------------------------|

e|--------------------------5---------------------------|
B|-------8------7-------------7---7---------------------|
G|-----------9-----9--4/7-------7-----------------------|
D|----9------------------------------------------2---4--|
A|-7---------------------------------------------3---5--|
E|------------------------------------------------------|


[Chorus]
e|--------------------------------------------|
B|---------------------------3-----3----------|
G|---------------------------0-----2-----2----|
D|------5---5---4---5--------0-----0-----0----|
A|------7---7---5---7--------------------0----|
E|-0--------------------0----3----------------|

e|-----------------------------------------------------|
B|-----------------------------------------3---3---3---|
G|------12--11--12---12--11--9-------2-----0---0---2---|
D|-----------------------------------2-----0---0---0---|
A|------10---9--10---10---9--7-------0-----x-----------|
E|-0----------------------------0----------3---3-------|

e|--------------------------------------------|
B|---------------------------3-----3--------3-|
G|---------------------------0-----2-----2--0-|
D|------5---5---4---5--------0-----0-----0----|
A|------7---7---5---7--------------------0--3-|
E|-0--------------------0----3----------------|

The war of kings began..
e|-3--------------------|
B|-3---------------3----|
G|-----------------2----|
D|-----------------0----|
A|-2--------------------|
E|-3--------------------|


[Main Riff]
e|------------------------------------------------|
B|------------------------------------------------|
G|------------------------------------------------|
D|------------------------------------------------|
A|------------------------------------------------|
E|-0-----3--5--3----6--7--6----5--6--5----5---3---| 4x


[Verse 2]
e|------------------------------------------------|
B|------------------------------------------------|
G|------------------------------------------------|
D|------------------------------------------------|
A|------------------------------------------------|
E|-0-----3--5--3----6--7--6----5--6--5----5---3---| 4x


[Bridge/Interlude]
e|--------------------------5-------5------------|
B|-------8------7-------------7---7---7---6------|
G|-----------9-----9--4/7-------7-------7--------|
D|----9------------------------------------------|
A|-7---------------------------------------------|
E|-----------------------------------------------|

e|--------------------------5---------------------------|
B|-------8------7-------------7---7---------------------|
G|-----------9-----9--4/7-------7-----------------------|
D|----9------------------------------------------2---4--|
A|-7---------------------------------------------3---5--|
E|------------------------------------------------------|


[Chorus]
e|--------------------------------------------|
B|---------------------------3-----3----------|
G|---------------------------0-----2-----2----|
D|------5---5---4---5--------0-----0-----0----|
A|------7---7---5---7--------------------0----|
E|-0--------------------0----3----------------|


e|-----------------------------------------------------|
B|-----------------------------------------3---3---3---|
G|------12--11--12---12--11--9-------2-----0---0---2---|
D|-----------------------------------2-----0---0---0---|
A|------10---9--10---10---9--7-------0-----x-----------|
E|-0----------------------------0----------3---3-------|

e|--------------------------------------------|
B|---------------------------3-----3--------3-|
G|---------------------------0-----2-----2--0-|
D|------5---5---4---5--------0-----0-----0----|
A|------7---7---5---7--------------------0--3-|
E|-0--------------------0----3----------------|

The war of kings began..
e|-3--------------------|
B|-3---------------3----|
G|-----------------2----|
D|-----------------0----|
A|-2--------------------|
E|-3--------------------|


[Instrumental interlude..]

[Solo]
                                                          ~
e|--------------------------------------------------------------|
B|--------------------------------------------------------------|
G|-9--11--12--11b12----9--11--12---14--14--12--11--12--11--9----|
D|--------------------------------------------------------------|
A|--------------------------------------------------------------|
E|--------------------------------------------------------------|

e|------------------------------------------|
B|------------------------------------------|
G|-7--9--7----9--7--------------------------|
D|------------------9--7--5-----5b6r========|
A|---------------------------7---------7----|
E|------------------------------------------|

           ~~                                                  ~~~~~
e|--------------------------------------17--15--17--17b19------20b22----|
B|-17--19--20-----19b20----17--19--20-----------------------------------|
G|---------------------------------------------------------16-----------|
D|----------------------------------------------------------------------|
A|----------------------------------------------------------------------|
E|----------------------------------------------------------------------|

                  ~~      ~~
e|-17--20--------------------------12--15b17--15-12-14-15-12-14-15-12-15-----------|
B|---------19b21--17-----------15----------------------------------------15--12----|
G|--------------------19--17-------------------------------------------------------|
D|---------------------------------------------------------------------------------|
A|---------------------------------------------------------------------------------|
E|---------------------------------------------------------------------------------|

                                     ~~                ~           ~
e|----------------------------------------------------------------------|
B|-14--12--14--12-------------------------------------------------------|
G|------------------9--11--12S=14-11-12--11-12-11-9-7-9-7---------------|
D|----------------------------------------------------------7--4b5--2---|
A|----------------------------------------------------------------------|
E|----------------------------------------------------------------------|


[Chorus]
e|--------------------------------------------|
B|---------------------------3-----3----------|
G|---------------------------0-----2-----2----|
D|------5---5---4---5--------0-----0-----0----|
A|------7---7---5---7--------------------0----|
E|-0--------------------0----3----------------|

e|-----------------------------------------------------|
B|-----------------------------------------3---3---3---|
G|------12--11--12---12--11--9-------2-----0---0---2---|
D|-----------------------------------2-----0---0---0---|
A|------10---9--10---10---9--7-------0-----x-----------|
E|-0----------------------------0----------3---3-------|

e|--------------------------------------------|
B|---------------------------3-----3--------3-|
G|---------------------------0-----2-----2--0-|
D|------5---5---4---5--------0-----0-----0----|
A|------7---7---5---7--------------------0--3-|
E|-0--------------------0----3----------------|

The war of kings began..
e|-3--------------------|
B|-3---------------3----|
G|-----------------2----|
D|-----------------0----|
A|-2--------------------|
E|-3--------------------|


[Main Riff]
e|------------------------------------------------|
B|------------------------------------------------|
G|------------------------------------------------|
D|------------------------------------------------|
A|------------------------------------------------|
E|-0-----3--5--3----6--7--6----5--6--5----5---3---| 3x

e|------------------------------------------------|
B|------------------------------------------------|
G|------------------------------------------------|
D|------------------------------------------------|
A|------------------------------------------------|
E|-0-----3--5--3----6--7--6----5--6--5------------| right away after 5-6-5 play the outro chords.


[Outro Chords]
e|------------------------|
B|------------------------|
G|-5---7---9--9---7--9----|
D|-5---7---9--9---7--9----|
A|-3---5---7--7---5--7----|
E|------------------------|

            
Submit corrections


        War Of Kings lessons Hard to play? Try these video lessons and learn fast War Of Kings lessons
        
↑ Back to top | Tablatures and chords for acoustic guitar and electric guitar, ukulele, drums are parodies/interpretations of the original songs. You may use it for private study, scholarship, research or language learning purposes only