Home » E » Etheridge Melissa »

Etheridge Melissa - Dont You Need Bass

Artists:  A B C D E F G H I J K L M N O P Q R S T U V W X Y Z # 

Dont You Need Bass

(ver. 1) Click to play this song!
Etheridge Melissa
 Rating:
4/5 (4 votes)
                "(1)
(No Bass in the first verse until...)


G---------------------------------------------------------------------
D---------------------------------------------------------------------
A---7-----------------------------------------------------------------
E---------------------------------------------------------------------
  And I realized my heart, had abducted my mind

G---------------------------------------------------------------------
D---------------------------------------------------------------------
A---7-----------------------------------------------------------------
E---------------------------------------7-----------------------------
  And they were last seen headed south. Now, I can't sleep 

G---------------------------------------------------------------------
D---------------------------------------------------------------------
A---------------------------------------------------------------------
E--7-------------5----------------------------------------------------
  I'm so wired, and I find myself screaming out...

(Chorus)

G---------------------------------------------------------------------
D---------------------------------------------------------------------
A---------------7-7-7--7--9---5-5-5----5-5-5---3-3-3---3-3-3--3-3-3---
E---------------------------------------------------------------------
  Don't you need, don't you want, can't you taste it when you're alone

G---------------------------------------------------------------------
D---------------------------------------------------------------------
A---3----5---7-7-7--7----9---5-5-5----5-5-5---3-3-3---3-3-3---3-3-3---
E---------------------------------------------------------------------
  Don't you cry, don't you feel, sometimes I wonder if you are real 

G---------------------------------------------------------------------
D---------------------------------------------------------------------
A---------------------------------------------------------------------
E---7-7-7---7-7-7----5------------------------------------------------
  Don't you bleed, Don't you need.

(Fill)

G-------------------7-9-------------------------------7-9-------------
D---------------7h9-------------------------------7h9-----------------
A---7--7-7--10-------------------------7--7-7--10---------------------
E-------------------------8-8--8--8-8---------------------8-8--8--8-8-

(Verse 2)

G---------------------------------------------------------------------
D---------------------------------------------------------------------
A----7-7-7---7-7-7----------------------------------------------------
E--------------------8-8-8---8-8-8------------------------------------
  (Repeat this pattern throughout the whole second verse until...)

G---------------------------------------------------------------------
D---------------------------------------------------------------------
A---------------------------------------------------------------------
E---7-7-7---7-7-7---7-7-7---7-7-7------5-5-5----5-5-5-----5-----------
   But, it's you, who holds the cards. Now that the joker is wild.

(Repeat Chorus)

(Bridge)

G---------------------------------------------------------------------
D---------------------------------------------------------------------
A---5-5-5---5-5-5----------------3-3-3----3-3-3-----------------------
E---------------------------------------------------------------------
  Don't you want to lay it down, feel you're skin against the ground

G---------------------------------------------------------------------
D---------------------------------------------------------------------
A---5-5-5--5-5-5-------3-------------3-3-3--3-3-3---3-3-3-------------
E---------------------------------------------------------------------
  Don't you want to ride the storm, then sleep inside the calm

G---------------------------------------------------------------------
D---------------------------------------------------------------------
A---5-5-5--5-5-5------------------7-7-7------------------9------------
E---------------------------------------------------------------------
   Don't you wanna get that high, don't you wanna be satisfied

G---------------------------------------------------------------------
D---------------------------------------------------------------------
A---9-9-9--9-9-9---------------3-3-3---7--------7---------------------
E---------------------------------------------------------------------
  Well if you dont want it from me, Don't you need

(Play fill and verse 2 until the end)
"            
Submit corrections

↑ Back to top | Tablatures and chords for acoustic guitar and electric guitar, ukulele, drums are parodies/interpretations of the original songs. You may use it for private study, scholarship, research or language learning purposes only