» » »

Escape The Fate - The Guillotine Tabs

Artists:  A B C D E F G H I J K L M N O P Q R S T U V W X Y Z # 

The Guillotine Tabs

(ver. 1) Click to play this song!
Escape The Fate
 Rating:
4.3/5 (28 votes)

 The Guillotine lessons Tabs too difficult? Try these video lessons and learn fast
 
                [Intro]

D|---------------------------------------------------------------------------|
A|---------------------------------------------------------------------------|
F|---------------------------------------------------------------------------|
C|-4-----4--------0----0--------2--------------------------------------------|
G|-4-----4--------0----0--------2--------------------------------------------|
C|-4-----4--------0----0--------2--------------------------------------------|


[Verse 1]

D|---------------------------------------------------------------------------|
A|---------------------------------------------------------------------------|
F|---------------------------------------------------------------------------|
C|---------------------------------------------------------------------------|
G|-------------4-------5-------7-----5---4p0-----------5p4-----7----7h9------|
C|-4--7--4--7-----4--4----4--4----4----4------0-0-0-0-------0----0-----------|

D|---------------------------------------------------------------------------|
A|---------------------------------------------------------------------------|
F|---------------------------------------------------------------------------|x4
C|---------------------------------------------------------------------------|
G|---------------------------------------------------------------------------|
C|--4-7-4-6------------------------------------------------------------------|


D|---------------------------------------------------------------------------|
A|---------------------------------------------------------------------------|
F|---------------------------------------------------------------------------|
C|---------------------------------------------------------------------------|
G|---------------------------------------------------------------------------|
C|-0-0-0--2-2-2--2-2-2--2-2-2----4-4-4---7-7-7--2-2-2--2-2-2---0-0-0---------|
    triplets
D|---------------------------------------------------------------------------|
A|---------------------------------------------------------------------------|
F|---------------------------------------------------------------------------|
C|--7p0--6p0--4p0--9h11p9--7p0--6p0--4p0----7p0--6p0--4p0---11p0---9p0---7p0-|
G|---------------------------------------------------------------------------|
C|---------------------------------------------------------------------------|

D|---------------------------------------------------------------------------|
A|---------------------------------------------------------------------------|
F|---------------------------------------------------------------------------|
C|-6p0---7p0--6p0--2p0--4p0---7p0---9p0---6p0---7p0-6p0--4p0--11--9----------|
G|---------------------------------------------------------------------------|
C|---------------------------------------------------------------------------|
     this is the lead under the triplets
[Chorus]

D|---------------------------------------------------------------------------|
A|---------------------------------------------------------------------------|
F|---------------------------------------------------------------------------|
C|--0-----2----4-----0-----2---4----7---9-----0---2--------------------------|
G|--0-----2----4-----0-----2---4----7---9-----0---2--------------------------|
C|--0-----2----4-----0-----2---4----7---9-----0---2----0-0--0-0--0-0--0-0----|

D|---------------------------------------------------------------------------|
A|---------------------------------------------------------------------------|
F|---------------------------------------------------------------------------|
C|---------------------------------------------------------------------------|
G|---------------------------------------------------------------------------|
C|---------------------------------------------------------------------------|


[Verse 2]

D|---------------------------------------------------------------------------|
A|---------------------------------------------------------------------------|
F|---------------------------------------------------------------------------|
C|---------------------------------------------------------------------------|
G|-------------4-------5-------7-----5---4p0-----------5p4-----7----7h9------|
C|-4--7--4--7-----4--4----4--4----4----4------0-0-0-0-------0----0-----------|

D|---------------------------------------------------------------------------|
A|---------------------------------------------------------------------------|
F|---------------------------------------------------------------------------|x4
C|---------------------------------------------------------------------------|
G|---------------------------------------------------------------------------|
C|--4-7-4-6------------------------------------------------------------------|


D|---------------------------------------------------------------------------|
A|---------------------------------------------------------------------------|
F|---------------------------------------------------------------------------|
C|---------------------------------------------------------------------------|
G|---------------------------------------------------------------------------|
C|-0-0-0--2-2-2--2-2-2--2-2-2----4-4-4---7-7-7--2-2-2--2-2-2---0-0-0---------|
    triplets
D|---------------------------------------------------------------------------|
A|---------------------------------------------------------------------------|
F|---------------------------------------------------------------------------|
C|--7p0--6p0--4p0--9h11p9--7p0--6p0--4p0----7p0--6p0--4p0---11p0---9p0---7p0-|
G|---------------------------------------------------------------------------|
C|---------------------------------------------------------------------------|

D|---------------------------------------------------------------------------|
A|---------------------------------------------------------------------------|
F|---------------------------------------------------------------------------|
C|-6p0---7p0--6p0--2p0--4p0---7p0---9p0---6p0---7p0-6p0--4p0--11--9----------|
G|---------------------------------------------------------------------------|
C|---------------------------------------------------------------------------|

[Chorus]

D|---------------------------------------------------------------------------|
A|---------------------------------------------------------------------------|
F|---------------------------------------------------------------------------|
C|--0-----2----4-----0-----2---4----7---9-----0---2----4---------------------|
G|--0-----2----4-----0-----2---4----7---9-----0---2----4---------------------|
C|--0-----2----4-----0-----2---4----7---9-----0---2----4---------------------|


[Bridge]

D|-2-5---0----2----2--5---0--2-----------------------------------------------|
A|-----2----------------2----------------------------------------------------|
F|---------------------------------------------------------------------------|
C|---------------------------------------------------------------------------|
G|---------------------------------------------------------------------------|
C|---------------------------------------------------------------------------|
     repeat as necessary



[Solo]

D|----------------------16-17-19---16-17-------------------------------------|
A|-14-14-------17--17b-------------------17----------------------------------|
F|-16-b16br--14------------------------------16s14---------------------------|
C|-------------------------------------------------14------------------------|
G|---------------------------------------------------14-12-------------------|
C|---------------------------------------------------------------------------|

D|---------------------------------------------------------------------------|
A|---------------------------------------------------------------------------|
F|--------------6-7-9-----------------7-9-11------------------9-11-13--------|
C|--------6-7-9----------------7-9-11-----------------9-11-12----------------|
G|--6-7-9---------------7-9-11----------------9-11-12------------------------|
C|---------------------------------------------------------------------------|
      legato
D|---------------------------------------------------------------------------|
A|---------------------------------------------------------------------------|
F|--------------------11-13-14--------------------12-14-16-12-14-16b--14-----|
C|-----------11-12-14--------------------12-14-16----------------------------|
G|--11-12-14--------------------12-14-16-------------------------------------|
C|---------------------------------------------------------------------------|

D|-------------17-16----------------------------------------------------------------|
A|----------------------------------------------------------------------------------|
F|-16b--14--------------------------------------------------------------------------|
C|----------------------------------------------------------------------------------|
G|----------------------------------------------------------------------------------|
C|----------------------------------------------------------------------------------|

[Chorus]

D|---------------------------------------------------------------------------|
A|---------------------------------------------------------------------------|
F|---------------------------------------------------------------------------|
C|--0-----2----4-----0-----2---4----7---9-----0---2----4---------------------|
G|--0-----2----4-----0-----2---4----7---9-----0---2----4---------------------|
C|--0-----2----4-----0-----2---4----7---9-----0---2----4---------------------|

[Outro]
D|---------------------------------------------------------------------------|
A|---------------------------------------------------------------------------|
F|---------------------------------------------------------------------------|
C|---------------------------------------------------------------------------|
G|---------------------------------------------------------------------------|
C|-0-0-0--2-2-2--2-2-2--2-2-2----4-4-4---7-7-7--2-2-2--2-2-2---0-0-0---------|
    triplets
D|---------------------------------------------------------------------------|
A|---------------------------------------------------------------------------|
F|---------------------------------------------------------------------------|
C|--7p0--6p0--4p0--9h11p9--7p0--6p0--4p0----7p0--6p0--4p0---11p0---9p0---7p0-|
G|---------------------------------------------------------------------------|
C|---------------------------------------------------------------------------|

D|---------------------------------------------------------------------------|
A|---------------------------------------------------------------------------|
F|---------------------------------------------------------------------------|
C|-6p0---7p0--6p0--2p0--4p0---7p0---9p0---6p0---7p0-6p0--4p0--11--9----------|
G|---------------------------------------------------------------------------|
C|---------------------------------------------------------------------------|
look up Parker Jarrell on youtbue for a cover coming soon

            
Submit corrections


        The Guillotine lessons Hard to play? Try these video lessons and learn fast The Guillotine lessons
        
↑ Back to top | Tablatures and chords for acoustic guitar and electric guitar, ukulele, drums are parodies/interpretations of the original songs. You may use it for private study, scholarship, research or language learning purposes only