Home » E » Erykah Badu »

Erykah Badu - Fall In Love Your Funeral Tabs

Artists:  A B C D E F G H I J K L M N O P Q R S T U V W X Y Z # 

Fall In Love Your Funeral Tabs

(ver. 1) Click to play this song!
Erykah Badu
[Bass]

e|---------------------------------|--------------------------|
B|---------------------------------|--------------------------|
G|---------------------------------|--------------------------|
D|---------------------------------|------------------6-7-8--9|
A|2-------4------------------------|--------------------------|
E|----4-------2-2-------------2-2--|------------2-2-----------|

[Keys]

e|4-4-4-4-4-4-4-4-4-4-4-4-4-4-4-4-4|-4-4-4-4-4-4-4-4-4-4-4-4-5|
B|---------------------------------|--------------------------|
G|1---2---1---1-1-------------1-1--|-----------1-1------------|
D|---------------------------------|--------------------------|
A|---------------------------------|--------------------------|
E|------------2-2-------------2-2--|-----------2-2------------|

            
Submit corrections

↑ Back to top | Tablatures and chords for acoustic guitar and electric guitar, ukulele, drums are parodies/interpretations of the original songs. You may use it for private study, scholarship, research or language learning purposes only