Home » E » Eros Ramazzotti »

Eros Ramazzotti - Quanto Amore Sei Bass

Artists:  A B C D E F G H I J K L M N O P Q R S T U V W X Y Z # 

Quanto Amore Sei Bass

(ver. 1) Click to play this song!
Eros Ramazzotti
       
INTRO
|-------------|------------|------------|------------|------------------|
|.-----------.|.----------.|.----------.|------------|------------------|
|.-----------.|.----------.|.-22222222-.|------------|-------6/9--9/6---|
|--44444444---|--11111111--|------------|-44444444---|--4444------------|


VERSI

|-------------|----------|----------|------------|------------|--------------|
|.-----------.|----------|----------|.----------.|------------|-------2p---2-|
|.-----------.|----------|-------01-|.-22222222-.|------------|-----------2--|
|--44444444---|-11111111-|-111111---|------------|-44444444---|--4444--------|


|-------------|----------|----------|------------|------------|--------------|
|.-----------.|----------|----------|.----------.|------------|--------------|
|.-----------.|----------|-------01-|.-22222222-.|------------|--------------|
|--44444444---|-11111111-|-111111---|------------|-44444444---|--444444-4/---|

|-------------|------------|----------|----------|----------|----------------|
|.-----------.|.----------.|----------|----------|----------|----------------|
|.-----------.|.----------.|-22222222-|-44444444-|----------|-------4/-/4----|
|--44444444---|--11111111--|----------|----------|-44444444-|--4444----------|

|-------------|------------|----------|----------|----------|
|.-----------.|.----------.|----------|----------|----------|
|.-----------.|.----------.|-22222222-|-44444444-|-22224444-|
|--44444444---|--11111111--|----------|----------|----------|


RITORNELLO

|-------------|------------|------------|----------|----------|----------|
|.-----------.|.----------.|------------|----------|----------|----------|
|.-----------.|.-11111111-.|------------|----------|----------|-44444444-| X2
|--44444444---|------------|-999999-8-6-|-66666666-|-44444444-|----------|



|------------|------------|------------|------------|----------|----------|
|------------|------------|------------|------------|----------|----------|
|------------|--22222222--|------------|--22222222--|----------|-4444-4---|
|--11111111--|------------|--11111111--|------------|-66666666-|----------|


VERSI (tonalità diversa)

|-------------|----------|----------|------------|------------|--------------|
|.-----------.|----------|----------|.----------.|------------|--------------|
|.-----------.|----------|----------|.-44444444-.|------------|---------6/---|
|--66666666---|-33333333-|-33333333-|------------|-66666666---|--666666------|

|-------------|----------|----------|------------|------------|--------------|
|.-----------.|----------|----------|------------|------------|--------------|
|.-----------.|----------|----------|--44444444--|-66666666---|--44446666----|
|--66666666---|-33333333-|-33333333-|------------|------------|--------------|


RITORNELLO (Tonalità diversa)

|-------------|--------------|------------|------------|--------------|----------|
|.-----------.|.------------.|------------|------------|--------------|----------|
|.-----------.|.--33333333--.|--44444-31--|-11111111---|--------------|-66666666-| X4
|--66666666---|--------------|------------|------------|--66666666----|----------|

FINALE

|-------------|--------------|------------|------------|--------------|
|-------------|--------------|------------|------------|--------------|
|-------------|---44444444---|------------|------------|--------------|
|--33333333---|--------------|--44444444--|--33333333--|--44444444----|

|-------------|-----------------|
|-------------|-----------------|
|-------------|-----------------|
|--88888888---|--66666-6/12--6--|            
Submit corrections

↑ Back to top | Tablatures and chords for acoustic guitar and electric guitar, ukulele, drums are parodies/interpretations of the original songs. You may use it for private study, scholarship, research or language learning purposes only