Home » E » Eros Ramazzotti »

Eros Ramazzotti - Piu Bella Cosa Bass

Artists:  A B C D E F G H I J K L M N O P Q R S T U V W X Y Z # 

Piu Bella Cosa Bass

(ver. 1) Click to play this song!
Eros Ramazzotti
 
INTRO
|-------------------|----------------|---------------|---------------|
|-------------------|----------------|---------------|---------------|
|--12\44-44-44-44---|--66-66-66-66---|--44-44-44-44--|--66-66-66-66--|
|-------------------|----------------|---------------|---------------|


VERSI

|-------------------|----------------|---------------|---------------|
|.------------------|---------------.|---------------|---------------|
|.----44-44-44-44---|--66-66-66-66--.|--44-44-44-44--|--66-66-66-66--| 
|-------------------|----------------|---------------|---------------|

|-------------------|----------------|---------------|---------------|
|-------------------|----------------|---------------|---------------|
|-----44-44-44-44---|--66-66-66-3/12-|---------------|---------------|
|-------------------|----------------|--44-44-44-44--|--66-66-66-66--|

|-------------------|----------------|---------------|---------------|
|-------------------|----------------|---------------|---------------|
|-----33-33-33-33---|----------------|---------------|---------------|
|-------------------|--66-66-66-66---|--44-44-44-44--|--66-66-66-66--|

|-------------------|-----------2----|---------------|---------------|
|-------------------|--------2/4--4\-|---------------|---------------|
|-------------------|----------------|--44-44-44-44--|--66-66-66-66--|
|-----44-44-22-22---|--11-11---------|---------------|---------------|

|-------------------|-------------6--|---------------|---------------|
|-------------------|------------4-6-|---------------|---------------|
|-----44-44-44-44---|--66-66-66-6----|--44-44-44-44--|--66-66-66-66--|
|-------------------|----------------|---------------|---------------|

|-------------------|----------------|---------------|---------------|
|-------------------|----------------|---------------|---------------|
|-----44-44-44-44---|--66-66-66-66---|---------------|---------------|
|-------------------|----------------|--44-44-44-44--|--66-66-66-66--|

|-------------------|----------------|---------------|---------------|
|-------------------|----------------|---------------|---------------|
|-----33-33-33-33---|----------4-6-4-|---------------|---------------|
|-------------------|--66-66-4-------|--44-44-44-44--|--66-66-66-66--|

|-------------------|----------------|---------------|---------------|
|-------------------|----------------|---------------|--55-55-55-55--|
|-------------------|----------------|--66-66-66-66--|---------------|
|-----44-44-22-22---|--11-11-11-11---|---------------|---------------|

|-------------------|----------------|---------------|---------------|
|-----66-66-66-66---|--33-33-33-33---|---------------|--55-55-55-55--|
|-------------------|----------------|--66-66-66-66--|---------------|
|-------------------|----------------|---------------|---------------|

|-------------------|
|-----66-66-66-66---|
|-------------------|
|-------------------|



RITORNELLO
(Più bella cosa non c'è...)
|-------------------|----------------|---------------|---------------|
|-----33-33-33-33---|----------------|---------------|---------------|
|-------------------|--66-66-66-66---|--22-22-22-22--|--33-33-33-33--|
|-------------------|----------------|---------------|---------------|


|-------------------|----------------|---------------|---------------|
|-------------------|----------------|---------------|---------------|
|----44-44-44-44----|----------------|---------------|---------------|
|-------------------|--44-44-44-44---|--33-33-33-33--|--11-11-11-11--|

                                         S T S T S (Slap)
|-------------------|                   |---------------|
|----8--------------|   Interludio      |--6---6---6----|
|-------------------|                   |---------------|
|-------------------|                   |----4---4------|


VERSI
|-------------------|----------------|---------------|---------------|
|-------------------|----------------|---------------|---------------|
|-----44-44-44-44---|--66-66-66-66---|--44-44-44-44--|--66-66-66-66--| X 2
|-------------------|----------------|---------------|---------------|

|-------------------|----------------|---------------|---------------|
|-------------------|----------------|---------------|---------------|
|-------------------|----------------|--33-33-33-33--|---------------| 
|-----44-44-44-44---|--66-66-66-66---|---------------|--66-66-66-66--|

|-------------------|----------------|---------------|---------------|
|-------------------|----------------|---------------|---------------|
|-------------------|----------------|---------------|---------------| 
|-----44-44-44-44---|--66-66-66-66---|--44-44-22-22--|--11-11-11-11--|

|-------------------|----------------|---------------|---------------|
|-------------------|--55-55-55-55---|--66-66-66-66--|--33-33-33-33--|
|-----66-66-66-66---|----------------|---------------|---------------| 
|-------------------|----------------|---------------|---------------|

|-------------------|----------------|---------------|
|-------------------|--55-55-55-55---|--66-66-66-66--|
|-----66-66-66-66---|----------------|---------------|
|-------------------|----------------|---------------|

RIPETERE RITORNELLO Poi:

|-------------------|----------------|---------------|-----------3---|
|-------------------|--55-55-55-55---|--66-66-66-66--|--33-33-35--5--|
|-----66-66-66-66---|----------------|---------------|---------------| 
|-------------------|----------------|---------------|---------------|

|-------------------|----------------|---------------|
|-------------------|--55-55-55-55---|--66-66-66-66--|
|-----66-66-66-66---|----------------|---------------|
|-------------------|----------------|---------------|


RIPETERE RITORNELLO Poi:
(Subito dopo: ?Grazie d'esistere?)
|-------------------|----------------|---------------|---------------|
|----55-6-7---------|----------------|---------------|---------------|
|-------------------|----------------|---------------|---------------| 
|-------------------|--33-33-33-33---|--44-44-44-44--|--33-33-66-66--|

|-------------------|----------------|---------------|----------2----|
|-------------------|----------------|---------------|-------2/4--4\-|
|-------------------|----------------|---------------|---------------| 
|----00-00-00-2-3---|--66-66-66-66---|--44-44-44-44--|--11-11--------|

|-------------------|----------------|---------------|---------------|
|-------------------|----------------|---------------|---------------|
|-------------------|----------------|---------------|---------------| 
|----00-00-00-2-3---|--66-66-66-66---|--44-44-44-44--|--4----6----0--|            
Submit corrections

↑ Back to top | Tablatures and chords for acoustic guitar and electric guitar, ukulele, drums are parodies/interpretations of the original songs. You may use it for private study, scholarship, research or language learning purposes only