Home » E » Eric Lapointe »

Eric Lapointe - Donnez Moi Du Gaz Tabs

Artists:  A B C D E F G H I J K L M N O P Q R S T U V W X Y Z # 

Donnez Moi Du Gaz Tabs

(ver. 1) Click to play this song!
Eric Lapointe
Tuning:STANDARD ( normalement en half step 0

e|---16-16-16-16-19-19-19-19-21-21-21-21b------------------------------------|
B|---------------------------------------------------------------------------|
G|---------------------------------------------------------------------------|
D|---------------------------------------------------------------------------|
A|---------------------------------------------------------------------------|
E|---------------------------------------------------------------------------|
                                       DIVEBOMB
e|---------------------------------------------------------------------------|
B|----11-9-11-9b------------9-11-9-11-9dv------------------------------------|
G|----11-9-11-9b------------9-11-9-11-9dv--------------------9-8-------------|
D|---------------------------------------------------------------10-11-------|
A|------------------11-10-11------------------------11-10-11-----------------|
E|---------------------------------------------------------------------------|

e|---------------------------------------------------------------------------|
B|---11br-9-11-9-------------------------------------------------------------|
G|---11br-9-11-9--10h11p10h11p10-tap21p10tap22--10h11p10h11-tap22------------|
D|---------------------------------------------------------------------------|
A|---------------------------------------------------------------------------|
E|---------------------------------------------------------------------------|

e|-------13-14-15-16-17-18-19b-----16-19-18----15-18-17----14-17-16-15hb-----|
B|-----x---------------------------------------------------------------------|
G|---x-----------------------------------------------------------------------|
D|-x-------------------------------------------------------------------------|
A|---------------------------------------------------------------------------|
E|---------------------------------------------------------------------------|

e|------15-19-15---------------12-15-12--------------------------------------|
B|--17-----------17---------12----------12-----------------------------------|
G|------------------16-s-12----------------12--------------------------------|
D|--------------------------------------------14-----------------------------|
A|-----------------------------------------------14--------------------------|
E|--------------------------------------------------15-12--------------------|

e|----------12-11-------15-14-14br-12-14-12--------17b-16-15-14-15-16-17-19FB|
B|-----------------13-14---------------------14-12---------------------------|
G|11-12-13-------------------------------------------------------------------|
D|---------------------------------------------------------------------------|
A|---------------------------------------------------------------------------|
E|---------------------------------------------------------------------------|
SLIDE DOWN
e|-20fb----------------------------------------------------------------------|
B|---------------------------------------------------------------------------|
G|---------------------------------------------------------------------------|
D|---------------------------------------------------------------------------|
A|---------------------------------------------------------------------------|
E|---------------------------------------------------------------------------|

            
Submit corrections

↑ Back to top | Tablatures and chords for acoustic guitar and electric guitar, ukulele, drums are parodies/interpretations of the original songs. You may use it for private study, scholarship, research or language learning purposes only