Home » E » Eric Clapton »

Eric Clapton - I Will Be There Tabs

Artists:  A B C D E F G H I J K L M N O P Q R S T U V W X Y Z # 

I Will Be There Tabs

(ver. 1) Click to play this song!
Eric Clapton
 Rating:
4.4/5 (11 votes)
                [Intro]
 Am                 E                  F#m                D
e|------------------|------------------|------------------|------------------|
B|------------------|------------------|------------------|------------------|
G|---2-4-6--4h6p4-2-|-1----------------|------------------|------------------|
D|-2----------------|----2-------------|-4-6-7--6h7p6---4-|-------4----------|
A|------------------|------------------|------------------|--5--7------------|
E|------------------|------------------|------------------|------------------|

 Am                 E                  F#m                D
e|------------------|------------------|------------------|------------------|
B|------------------|------------------|------------------|------------------|
G|---2-4-6-7--6h7p6-|-4\1-1------------|------------------|------------------|
D|-2----------------|------------------|-4----------------|----2-2--4--------|
A|------------------|------------------|------------------|-5----------------|
E|------------------|------------------|------------------|------------------|            
Submit corrections

↑ Back to top | Tablatures and chords for acoustic guitar and electric guitar, ukulele, drums are parodies/interpretations of the original songs. You may use it for private study, scholarship, research or language learning purposes only