» » »

Eric Clapton - Good Morning Little School Girl Tabs

Artists:  A B C D E F G H I J K L M N O P Q R S T U V W X Y Z # 

Good Morning Little School Girl Tabs

(ver. 1) Click to play this song!
Eric Clapton
 Rating:
4.3/5 (29 votes)

 Good Morning Little School Girl  lessons Tabs too difficult? Try these video lessons and learn fast
 
                [Solo] with slide

e|----------------|--------------------------|
B|-/-12-12-12-12--|-12-12-12-12-12-12-12-12--|
G|----------------|--------------------------|
D|----------------|--------------------------|
A|----------------|--------------------------|
E|----------------|--------------------------|


e|-----------------------------|---------------------------|
B|--/-12-12-12-12-12-12-12-12--|-/-12-12-12-12-12-12-12-12-|
G|-----------------------------|---------------------------|
D|-----------------------------|---------------------------|
A|-----------------------------|---------------------------|
E|-----------------------------|---------------------------|


e|-----------------|-------------------|--------------------|
B|-12\11-10-8------|-----8-10/11\10-8--|-/-12\10-8-------8--|
G|------------8-7--|-8~~---------------|-----------8-7-8----|
D|-----------------|-------------------|--------------------|
A|-----------------|-------------------|--------------------|
E|-----------------|-------------------|--------------------|

e|---------------------|---------12--------------|-----------/-12-|
B|-------8-/-12\10-----|------------12\10-8---8--|-/-12--12-------|
G|-8~~-8-----------8~~-|-(8)/-12------------8----|----------------|
D|---------------------|-------------------------|----------------|
A|---------------------|-------------------------|----------------|
E|---------------------|-------------------------|----------------|


e|-12\10-7----------------|--------------12--|---------------|
B|---------/-12\10-8------|-----8-10\12--12--|-12\10-8-------|
G|-------------------8-6--|-8~~--------------|----------8--6-|
D|------------------------|------------------|---------------|
A|------------------------|------------------|---------------|
E|------------------------|------------------|---------------|            
Submit corrections


        Good Morning Little School Girl  lessons Hard to play? Try these video lessons and learn fast Good Morning Little School Girl  lessons
        
↑ Back to top | Tablatures and chords for acoustic guitar and electric guitar, ukulele, drums are parodies/interpretations of the original songs. You may use it for private study, scholarship, research or language learning purposes only