» » »

Eric Clapton - For Love On Christmas Day Tabs

Artists:  A B C D E F G H I J K L M N O P Q R S T U V W X Y Z # 

For Love On Christmas Day Tabs

(ver. 1) Click to play this song!
Eric Clapton
 Rating:
4.3/5 (16 votes)

 For Love On Christmas Day lessons Tabs too difficult? Try these video lessons and learn fast
 
                [Intro]
e|----------------------|-----------------------|------------------------|
B|----------------------|--------5--------------|------------------------|
G|------2---4/6--4--4~--|--4/6/7----6h7--4--2~--|-----2--4/6---4---2-2~--|
D|---4------------------|-----------------------|--4---------------------|
A|----------------------|-----------------------|------------------------|
E|----------------------|-----------------------|------------------------|


[Verse one]
e|----------------5-5~--5h7--4~--4--5--4---------|
B|-------5~---5h7-------------------------7--5~--|
G|--4/6------------------------------------------|
D|-----------------------------------------------|
A|-----------------------------------------------|
E|-----------------------------------------------|


[Verse 2/interlude]
e|----------------------------------------------|-------------------------------5--7/9--7-7~--|--------------|
B|-------5-5~----5h7--5~---5h7--5---------------|---------5--5-5-5h7--5~--5--7----------------|-------5-7-7~-|
G|--4/6-------6--------------------6\4p2-----4--|--4/6/7--------------------------------------|--6-7---------|
D|----------------------------------------4-----|---------------------------------------------|--------------|
A|----------------------------------------------|---------------------------------------------|--------------|
E|----------------------------------------------|---------------------------------------------|--------------|

KEY CHANGE!!!! [A to Bb]

[Outro]
e|----------------------|---------------------------------------------------|
B|----------------------|----------6-------------------------------6h8--6~--|
G|-------3--5/7--5--5~--|---5/7-8-----7h8--5--3----3--5/7---5-7-8-----------|
D|---/5-----------------|------------------------5--------------------------|
A|----------------------|---------------------------------------------------|
E|----------------------|---------------------------------------------------|

            
Submit corrections


        For Love On Christmas Day lessons Hard to play? Try these video lessons and learn fast For Love On Christmas Day lessons
        
↑ Back to top | Tablatures and chords for acoustic guitar and electric guitar, ukulele, drums are parodies/interpretations of the original songs. You may use it for private study, scholarship, research or language learning purposes only