» » »

Eric Clapton - Cocaine Tabs

Artists:  A B C D E F G H I J K L M N O P Q R S T U V W X Y Z # 

Cocaine Tabs

(ver. 1) Click to play this song!
Eric Clapton
 Rating:
4.3/5 (25 votes)

 Cocaine lessons Tabs too difficult? Try these video lessons and learn fast
 
                [1ER SOLO]

E|------------------------------------------------------|
B|------------------------------------------------------|
G|---------12-12b-------------------------12-12b--------|
D|-12-14----------14-14-12-14---14-12-14----------14----|
A|------------------------------------------------------|
E|------------------------------------------------------|


E|------------------------------------------|
B|--12--12--12----12------12--12--12--12----|
G|--14b-14b-14b---14b(16)r14--14--14--------|
D|------------------------------------------|
A|------------------------------------------|
E|------------------------------------------|

E|------------------------------------------|
B|--14b-12----------------------------------|
G|----------14-14-12-14---14-12-------------|
D|------------------------------------------|
A|------------------------------------------|
E|------------------------------------------|

E|------------12----------------------------|
B|---------12----15-12----------------------|
G|-14-14b--------------15-14-12-----14b-----|
D|------------------------------14----------|
A|------------------------------------------|
E|------------------------------------------|

E|------------------------------------------|
B|------------------------------------------|
G|--12--------------------------------------|
D|-------14-14--12--14----------------------|
A|------------------------------------------|
E|------------------------------------------|


E|--------------------------------------------------------|
B|--15----------------------------------------------------|
G|-----14b(16)r14--12-----12-----------12b-----------12b--|
D|--------------------14-----12--14-14-----14--12-14------|
A|--------------------------------------------------------|
E|--------------------------------------------------------|


E|--------12--------------------------12----|
B|-----12-----15-12-------------------------|
G|-14b--------------14b-14-12----14b--------|
D|----------------------------14------------|
A|------------------------------------------|
E|------------------------------------------|

E|------------------------------------------|
B|-15-15--15---15---15----------------------|
G|--------14b-(16)--14---12-----------------|
D|---------------------------14-------------|
A|------------------------------------------|
E|------------------------------------------|


E|--12------------------------------------------------|
B|-----15--15---15------------------------------------|
G|---------14b--14--12----12----------------12-12b----|
D|---------------------14----14---14--12h14--------14-|
A|----------------------------------------------------|
E|----------------------------------------------------|


E|----------------------------------------------|
B|----------------------------------------------|
G|---------------12-12-12-12--------------------|
D|--------12h14--12-12-12-12--14----------------|
A|--12h14---------------------------------------|
E|----------------------------------------------|

E|------------------------------------------|
B|-------12---14b--14--12-------------------|
G|-------12---14b--14--12-------------------|
D|-14-14------------------14----------------|
A|------------------------------------------|
E|------------------------------------------|


E|--12-----12-----12-----12-----12---12--12---|
B|-----15b----15b----15b----15b------15b-15b--|
G|--------------------------------------------|
D|--------------------------------------------|
A|--------------------------------------------|
E|--------------------------------------------|

E|--12----------------------------------------|
B|------15--12------15------------------------|
G|--------------14b(16)r14---12---------------|
D|--------------------------------------------|
A|--------------------------------------------|
E|--------------------------------------------|

E|------------------------------------------------------|
B|-15------15-15----------------------------------------|
G|----14r--14-14--12-14b---12-14b---12--------12-12b----|
D|--------------------------------------14-12--------14-|
A|------------------------------------------------------|
E|------------------------------------------------------|


E|--------------------------------------------|
B|--------------------------------------------|
G|-14b-14--14p12-------14b--------------------|
D|--------------14-12-------------------------|
A|--------------------------------------------|
E|--------------------------------------------|

E|--------------------------------------------------|
B|--------------------------------------------------|
G|---------------12-------------------------12--0---|
D|-14-12-14-14-------14-12-14--------12h14--14------|
A|-----------------------------12h14----------------|
E|--------------------------------------------------            
Submit corrections


        Cocaine lessons Hard to play? Try these video lessons and learn fast Cocaine lessons
        
↑ Back to top | Tablatures and chords for acoustic guitar and electric guitar, ukulele, drums are parodies/interpretations of the original songs. You may use it for private study, scholarship, research or language learning purposes only