Home » E » Erasure »

Erasure - Sometimes Bass

Artists:  A B C D E F G H I J K L M N O P Q R S T U V W X Y Z # 

Sometimes Bass

(ver. 1) Click to play this song!
Erasure
Sometimes
First UK top ten hit for Erasure reaching number 2 in 1986.
The original recording. Very Easy, Play crochets throughout the song

Intro:
G|------------|-----------------------------------------------------|
D|-NO BASS-ON-|-----------------------------------------------------|
A|-FIRST PART-|-3-3-3-3-------------------1-1-1-1---3-3-3-3---------|
E|------------|---------3-3-3-3---4-4-4-4-------------------3-3-3-3-|

G|-----------------|
D|---------3-3-3-3-|
A|-1-1-1-1---------|
E|-----------------|

Verse:                    (PLAY THIS x2)
G|--------------------------------------|
D|-5-5-5-5---3-3------5-5-5-5---3-3-----|
A|---------------3-3----------------3-3-|
E|--------------------------------------|

Pre-Chorus:
G|---------------------------------------|
D|-------------------------3-3---5-5-5-5-|
A|-0-0-0-0---5-5-5-5---1-1---------------|
E|---------------------------------------|

Chorus 1:
G|---------------------------------------------------------------------|
D|-------------------------------------------------------------3-3-3-3-|
A|-3-3-3-3-------------------1-1-1-1---3-3-3-3---------1-1-1-1---------|
E|---------3-3-3-3---4-4-4-4-------------------3-3-3-3-----------------|

REPEAT VERSE:

REPEAT PRE-CHORUS:

REPEAT CHORUS:

FOR TRUMPET INTERLUDE REPEAT VERSE AND PRE-CHORUS:

BREAK WITH FIRST PART OF INTRO REPEATED WITH NO BASS:

Outro:                          (PLAY THIS TO FADE/END)
G|-----------------------------------------------------|
D|-----------------------------------------------------|
A|-3-3-3-3-------------------1-1-1-1---3-3-3-3---------|
E|---------3-3-3-3---4-4-4-4-------------------3-3-3-3-|

G|-----------------|
D|---------3-3-3-3-|
A|-1-1-1-1---------|
E|-----------------|
            
Submit corrections

↑ Back to top | Tablatures and chords for acoustic guitar and electric guitar, ukulele, drums are parodies/interpretations of the original songs. You may use it for private study, scholarship, research or language learning purposes only