» » »

Eraserheads - Pare Ko Bass

Artists:  A B C D E F G H I J K L M N O P Q R S T U V W X Y Z # 

Pare Ko Bass

(ver. 2) Click to play this song!
Eraserheads
 Rating:
4/5 (4 votes)


 Pare Ko lessons Tabs too difficult? Try these video lessons and learn fast
 
                -----------------------------------------------------------------------
		Pare Ko - Eraserheads
-----------------------------------------------------------------------


Tuning: Bass? May Standard Ba Ang Bass?

Actually, wala talagang bass tab sa Verse 1. Maniwala ka sa akin… trust me. Pakinggan mo 
maigi. Kung may naririnig kang bass, yung electric guitar yun nagpluplucking sa Bass String.

Chorus And Solo:

G|------------------------------------------------------------------------|
D|------------------------------------------------------------------------|
A|----------5-7-7-7-7-9----------5-4-2------------------------------------|
E|-5-5-5-5--------------9-5---5-------------------------------------------|

Verse 2:

“Sabi niya… ayaw niya munang magkasiyota…”

G|------------------------------------------------------------------------|
D|------------------------------------------------------------------------|
A|------------------------5-5-5-5-5-5-5-5-5-------------------------------|
E|-5-5-5-5-5-5-5-5-5-5----------------------------------------------------|

“Ba’t ba ang labo niya? Hindi ko maipinta…”

G|---------------------------------------------------------------------|
D|---------------------------------------------------------------------|
A|-2-2-2-2-2-2-2-2--5-5-5-5-5-5-5-5------------------------------------|
E|---------------------------------------------------------------------|

“ Hanggang kailan maghihintay, ako ay nabuburat na…”

G|------------------------------------------------------------------|
D|------------------------------------------------------------------|
A|-2-2-2-2-2-2-2-2--5-5-5-5-5-5-5-5--7-7-7-7-7-7-7-7-7-7-7-7-7-7----|
E|------------------------------------------------------------------|

“Pero minamahal ko siya, di biro, T.L. ako sa kanya…”

G|-------------------------------------------------------------------------|
D|-------------------------------------------------------------------------|
A|----------5-7-7-7-7------------------------------------------------------|
E|-5-5-5-5-----------------------------------------------------------------|

(Pagdating sa “Oh pare ko, meron ka bang maipapayo, kung wala ay okey lang…” tugtugin 
yung first tab ng Verse 2 (Sabi niya… ayaw niya munang magkasiyota…))

(Pagdating sa “masakit mang isipin, kailangang tanggapin…” tugtugin niyo yung second tab 
Verse 2 (Ba’t ba ang labo niya? Hindi ko maipinta))

(Pagdating sa “kung kalian ka naging seryoso saka ka niya gagaguhin…” tugtugin niyo yung 
tab ng Verse 2 (Hanggang kalian maghihintay, ako ay nabuburat na))

(Repeat Chorus Until End)
            
Submit corrections



        Pare Ko lessons Hard to play? Try these video lessons and learn fast Pare Ko lessons
        
↑ Back to top | Tablatures and chords for acoustic guitar and electric guitar, ukulele, drums are parodies/interpretations of the original songs. You may use it for private study, scholarship, research or language learning purposes only