» » »

Eraserheads - Overdrive Bass

Artists:  A B C D E F G H I J K L M N O P Q R S T U V W X Y Z # 

Overdrive Bass

(ver. 1) Click to play this song!
Eraserheads
 Rating:
4/5 (4 votes)


 Overdrive lessons Tabs too difficult? Try these video lessons and learn fast
 
                -----------------------------------------------------------------------------
			     Overdrive - Eraserheads
-----------------------------------------------------------------------------


Tuning: Standard (Just listen to the song to get the timing…)

“Magda – drive ako hanggang Batangas…”

G|------------------------------------------------------------------------|
D|------------------------------------------------------------------------|
A|-10-10-----12-10-10--------------12-10-10-------------12-10-10----------|
E|--------13-----------6-7-9-9--13-----------6--9-9--13-----------6-7-9-9-|

“Isasama ko ang girlfriend ko…”

G|--------------------------------------------------| Repeat this tab twice
D|--------------------------------------------------|
A|---5-----5\4----5-----5\4---5-----5\4---5-----5\4-|
E|-6---7-6------6---7-6-----6---7-6-----6---7-6-----|

“Kahit may kasama siyang aso…”

G|-----------|       |------------------------------| Repeat      |-------|
D|-----------| Then… |------------------------------| this tab    |-------|
A|-----------|       |------------------------------| four        |-------|
E|-5-5-5-5-5—|       |-7\4-4-4-4-4-4—-8\5-5-5-5-5-5—| times then… |-6-6-7-|

“Magdadala ako ng pagkain…”

G|----------------------------------------------------| Repeat this tab twice
D|----------------------------------------------------|
A|---6-----6\5----5-----5\4---------------------------|
E|-7---8-7------7---7-6------5-5-5-5-5-5--6-6-6-6-6-6-|

“Magda – drive ako hanggang Visayas…”

G|-------------------------------------| Repeat   |--------------------|
D|-------------------------------------| this tab |--------------------|
A|-------------7h9p7-------------7h9p7-| thrice   |--------------------|
E|-7-7-7-7-7-7-------6-6-6-6-6-6-------| then…    |-7-7-7-7-7-7-7-7-10-|

“Magda – drive ako buong taon…” (Get the timing for this… listen to the song)

G|----| then… |-------------------------------------------------------------|
D|----|       |-------------------------------------------------------------|
A|----|       |-10-10-----12-10-10--10-10-----12-10-10--------------12-10---|
E|-9~-|       |--------13------------------13-----------6-7-9-9--13---------|

G|------------------------------|
D|------------------------------|
A|-10-----------6-6-6-6-6-6-6-6-|
E|-----6-6-7-7------------------|

“Gusto kong matutong magdrive…”

G|--------------------------------------------------------------------------|
D|-----------------------------------------------------------7h9p7----------|
A|-7-7-7-7-7-7-7-7-7-4-4-4-4-4-4-4-4-8-8-8-8-8-8-8-8-6-6-6-6-------9-7-5-5--|
E|--------------------------------------------------------------------------|

G|--------------------------------------------------------------------------|
D|-----------------------------------------------------5/7------------------|
A|-5-5-5-5-5-5-7-7-7-7-7-7-7-7-4-4-4-4-4-4-4-5-5-5-5-5-----7-7-3-5-7-7-7-7--|
E|--------------------------------------------------------------------------|

G|--------------------------------------------------------------------------|
D|---7-6---------------------------4/6--------------------------------------|
A|-7-----7-7-7-7-7-7-7-7-5-5-5-5-5-----6-6-6-6-6-6-6-6-4-4-4-4-4-4-4-4-6-6--|
E|--------------------------------------------------------------------------|

G|---------------------------------------------------------------|
D|---------4-----------------------------6h8p6---------------7/8-|
A|-6-6-6-6---5-5-5-5-5-5-5-6-6-6-6-6-6-6-------8-8-8-8-8-8-8-----|
E|---------------------------------------------------------------|

“Magdrive!”

G|--------------| Repeat this tab eight times… then |----| then…
D|--------------|                                   |----|
A|---8------8\7-|                                   |----|
E|-9---10-9-----|                                   |-9~-|

Get the timing of this part…

G|--------| then… |----| Repeat this part until end…
D|--------|       |----|
A|--------|       |----|
E|-7\2-2~-|       |-6~-|
            
Submit corrections



        Overdrive lessons Hard to play? Try these video lessons and learn fast Overdrive lessons
        
↑ Back to top | Tablatures and chords for acoustic guitar and electric guitar, ukulele, drums are parodies/interpretations of the original songs. You may use it for private study, scholarship, research or language learning purposes only