» » »

Eraserheads - Minsan Bass

Artists:  A B C D E F G H I J K L M N O P Q R S T U V W X Y Z # 

Minsan Bass

(ver. 1) Click to play this song!
Eraserheads
 Rating:
4/5 (4 votes)


 Minsan lessons Tabs too difficult? Try these video lessons and learn fast
 
                ===============================================================================
                             Minsan - Eraserheads
===============================================================================
Please Rate my Work! :)

"May mga sariling gimik at kaya-kanyang hangad sa buhay"
(Medyo may delay ang pasok ng bass dito)
G|---------------------------------------------------------------------------|
D|---------------------------4--4----5--7------------------------------------|
A|-----------------------5---------------------------------------------------|
E|---------------------------------------------------------------------------|

"Sa ilalim ng iisang bubong"
G|---------------------------------------------------------------------------|
D|------------------------4--4-----5---7-------------------------------------|
A|---5---5--5---5--5---5-----------------------------------------------------|
E|---------------------------------------------------------------------------|

G|---------------------------------------------------------------------------|
D|-----------------4-4--5-7----------------4-4--5-7--5--5-5--5-5---5--7h8--7-|
A|--5--5-5--5-5--5----------7--7-7--7-7--7-----------------------------------|
E|---------------------------------------------------------------------------|

Chorus
G|---------------------------------------------------------------------------|
D|------------------------4--4-----5---7-------------------------------------|
A|---5---5--5---5--5---5-----------------------------------------------------|
E|---------------------------------------------------------------------------|

G|---------------------------------------------------------------------------|
D|------------------------4--4-----5---7-------------------------------------|
A|---5---5--5---5--5---5-----------------------------------------------------|
E|---------------------------------------------------------------------------|

G|---------------------------------------------------------------------------|
D|-------------4---457-5-55-55-5---45--55--55-5--7h8-7-----------------------|
A|--5-55-55--5---5---------------5-------------------------------------------|
E|---------------------------------------------------------------------------|

G|---------------------------------------------------------------------------|
D|-----------------------4---4-5-7--5-55-55---5---77777-------5--------------|
A|---5--5-5------5-5--5----5-------------------------------------------------|
E|---------------------------------------------------------------------------|

G|---------------------------------------------------------------------------|
D|--2h4-44--2h4-44--4h5-55--4h5-55--------2h4-44--2h4-44--4h5-55--4h5-55-----|
A|---------------------------------------------------------------------------|
E|---------------------------------------------------------------------------|

"Na minsan tayo ay naging"
G|---------------------------------------------------------------------------|
D|---------------------------------------------------------------------------|
A|----------------------------------55555----00000--------------5------------|
E|----------------------------------------------------33333------------------|



Adlib
G|---------------------------------------------------------------------------|
D|------------------------4--4-----5---7-------------------------------------|
A|---5---5--5---5--5---5-----------------------------------------------------|
E|---------------------------------------------------------------------------|

G|---------------------------------------------------------------------------|
D|------------------------4--4-----5---7-------------------------------------|
A|---5---5--5---5--5---5-----------------------------------------------------|
E|---------------------------------------------------------------------------|

G|---------------------------------------------------------------------------|
D|-------------4---457-5-55-55-5---45--55--55-5--7h8-7-----------------------|
A|--5-55-55--5---5---------------5-------------------------------------------|
E|---------------------------------------------------------------------------|

G|---------------------------------------------------------------------------|
D|-----------------------4---4-5-7--5-55-55---5---77777-------5--------------|
A|---5--5-5------5-5--5----5-------------------------------------------------|
E|---------------------------------------------------------------------------|

G|---------------------------------------------------------------------------|
D|--2h4-44--2h4-44--4h5-55--4h5-55--------2h4-44--2h4-44--4h5-55--4h5-55-----|
A|---------------------------------------------------------------------------|
E|---------------------------------------------------------------------------|

G|---------------------------------------------------------------------------|
D|---------------------------------------------------------------------------|
A|----------------------------------55555----00000--------------5------------|
E|----------------------------------------------------33333------------------|


"Minsan ay parang wala nang bukas sa buhay natin"
G|---------------------------------------------------------------------------|
D|------------------------4--4-----5---7-------------------------------------|
A|---5---5--5---5--5---5-----------------------------------------------------|
E|---------------------------------------------------------------------------|

G|---------------------------------------------------------------------------|
D|-----------------4-4--5-7----------------4-4--5-7--5--5-5--5-5---5--7h8--7-|
A|--5--5-5--5-5--5----------7--7-7--7-7--7-----------------------------------|
E|---------------------------------------------------------------------------|

G|---------------------------------------------------------------------------|
D|------------------------4--4-----5---7-------------------------------------|
A|---5---5--5---5--5---5-----------------------------------------------------|
E|---------------------------------------------------------------------------|

G|---------------------------------------------------------------------------|
D|-----------------4-4--5-7----------------4-4--5-7--5--5-5--5-5---5--7h8--7-|
A|--5--5-5--5-5--5----------7--7-7--7-7--7-----------------------------------|
E|---------------------------------------------------------------------------|

Chorus
G|---------------------------------------------------------------------------|
D|------------------------4--4-----5---7-------------------------------------|
A|---5---5--5---5--5---5-----------------------------------------------------|
E|---------------------------------------------------------------------------|

G|---------------------------------------------------------------------------|
D|------------------------4--4-----5---7-------------------------------------|
A|---5---5--5---5--5---5-----------------------------------------------------|
E|---------------------------------------------------------------------------|

G|---------------------------------------------------------------------------|
D|-------------4---457-5-55-55-5---45--55--55-5--7h8-7-----------------------|
A|--5-55-55--5---5---------------5-------------------------------------------|
E|--------------------------------------------------------------------------

G|---------------------------------------------------------------------------|
D|-----------------------4---4-5-7--5-55-55---5---77777-------5--------4-----|
A|---5--5-5---5--5-5--5----5-------------------------------------------------|
E|---------------------------------------------------------------------------|

G|---------------------------------------------------------------------------|
D|--2h4-44--2h4-44--4h5-55--4h5-55-------------------------------------------|
A|----------------------------------55555----00000--------------5-555-0000---|
E|----------------------------------------------------33333------------------|


Pakinggan nyo na lang ung kanta tas ibagay nyo na lang tong part na toh Tamang Timing Lang :)


Minsan ay hindi ko na alam ang nangyayari
Kahit na anong gawin
Lahat ng bagay ay merong hangganan
Dahil ngayon tayo ay nilimot ng kahapon
Di na mapipilitang buhayin ang ating pinagsamahan
Ngunit kung sakaling mapadaan baka
Ikaw ay aking tawagan
Dahil minsan tayo ay naging
Tunay na magkaibigan


"Minsan ay hindi ko na alam ang nangyayari"
G|---------------------------------------------------------------------------|
D|---------------------------------------------------------------------------|
A|---------------------------------------------------------------------------|
E|---------000000000000000000000--3333333333--5555555555-00000000000000000000|

"Kahit na anong gawin"
G|---------------------------------------------------------------------------|
D|---------------------------------------------------------------------------|
A|---------------------------------------------------------------------------|
E|--------3333333333-------------55555555555---------------------------------|

"ay merong hangganan"
G|---------------------------------------------------------------------------|
D|---------------------------------------------------------------------------|
A|---------------------------------------------------------------------------|
E|--------------------00000000000000000000-----------------------------------|

"ay nilimot ng kahapon"
G|---------------------------------------------------------------------------|
D|---------------------------------------------------------------------------|
A|---------------------------------------------------------------------------|
E|---------3333333333333-----------------------------------------------------|

"mapipilitang"
G|---------------------------------------------------------------------------|
D|---------------------------------------------------------------------------|
A|---------------------------------------------------------------------------|
E|----------------0000000000-------------------------------------------------|

"buhayin ang ating ................................pinagsamahan"
G|---------------------------------------------------------------------------|
D|---------------------------------------------------------------------------|
A|---------------------------------------------------------------------------|
E|--5555555555------------------------------77777777777----------------------|

"Ngunit kung sakaling mapadaan baka"
G|---------------------------------------------------------------------------|
D|---------6---------7------------6-------------7----------------------------|
A|---------------------------------------------------------------------------|
E|---------------------------------------------------------------------------|

"Tunay na magkaibigan"
G|---------------------------------------------------------------------------|
D|-----------------6-6--7--9-------------------6-6--7-9----------------------|
A|--7--7-7--7-7--7-----------7---7-7--7-7---7-------------9---9-9--9-9---9---|
E|---------------------------------------------------------------------------|


G|---------------------------------------------------------------------------|
D|--6-6----7--9-----7---7-7----7-7-----9---10------------14------------------|
A|---------------------------------------------------------------------------|
E|---------------------------------------------------------------------------|

| /  slide up
| \  slide down
| h  hammer-on
| p  pull-off
| ~  vibrato
| +  harmonic
| x  Mute note
===============================================================================
            
Submit corrections



        Minsan lessons Hard to play? Try these video lessons and learn fast Minsan lessons
        
↑ Back to top | Tablatures and chords for acoustic guitar and electric guitar, ukulele, drums are parodies/interpretations of the original songs. You may use it for private study, scholarship, research or language learning purposes only