» » »

Eraserheads - Ligaya Bass

Artists:  A B C D E F G H I J K L M N O P Q R S T U V W X Y Z # 

Ligaya Bass

(ver. 2) Click to play this song!
Eraserheads
 Rating:
4/5 (4 votes)


 Ligaya lessons Tabs too difficult? Try these video lessons and learn fast
 
                Ligaya - Eraserheads

Intro:
G|---------------------------------12-12-14-12-/18-14-12--------|
D|---------------------------12-12------------------------------|
A|-------------------------------------------------------5------|
E|--5---5/10-----10--\5-------------------------------------10\-|

Verse:
G|----------------------------------------------------------------------|
D|----------------------------------------------------------------------|
A|------------------555-55---555-55---------------------555-55---555-55-|
E|--5-55---555-55--------------------555-55---555-55--------------------|

G|----------------------------------------------------|
D|----------------------------------------------------|
A|---------------55-7--77--78-88-89-7-5----5----------|
E|-5-6-7--77---7--------------------------5-------10\-|

G|----------------------------------------------------------------------|
D|----------------------------------------------------------------------|
A|------------------555-55---555-55---------------------555-55---555-55-|
E|--5-55---555-55--------------------555-55---555-55--------------------|

G|--------------------------------------------------------|
D|------------------------------------------------4-------|
A|---------------55-7--77--78-88-89-7-5-----5----5--------|
E|-5-6-7--77---7--------------------------0/----------10\-|

Chorus 1:
G|----------------------------------------------------|
D|---2-23-3355---33-22--------------------------3/5-5-| 
A|-33------------------33------33--33--------33-------|
E|------------------------11-----33--33---11----------|

G|-----------------------------------------------------------------|
D|---2-23-3355---33-22---------------------------------------------|
A|-33------------------33------0/7--77--77-----88--88-----77--77---|
E|------------------------11----------77--77-----88--88-----77--77-|

G|-----------------------------------------------|
D|-3-5-6-5--------------------2-23-3355---44--66-| 
A|--3-5-6-5-2-2-5-10/0------33----------55--77---|
E|-----------3---------3-------------------------|

Adlib:
G|-------------------------------------------------------------------|
D|---------------------------------4---------------------------------|
A|------------------555-55---555-57------------------555-55---555-55-|
E|--5-55---555-55--------------------5-55---555-55-------------------|

G|---------------------------------11---9----------------------|
D|-------------------------------------------4-6-7-------------|
A|---------------55-7--77--78-88-99---77---55----------5-------|
E|-5-6-7--77---7-------------------------------------------10\-|


Verse
G|----------------------------------------------------------------------|
D|----------------------------------------------------------------------|
A|------------------555-55---555-55---------------------555-55---555-55-|
E|--5-55---555-55--------------------555-55---555-55--------------------|

G|---------------------------------11---9------------------------|
D|-------------------------------------------4-6-7--------4------|
A|---------------55-7--77--78-88-99---77---55--------5---5-------|
E|-5-6-7--77---7---------------------------------------------10\-|

Chorus 2
G|---------------------------|
D|---2-23-3355---33-22-------| 
A|-33------------------33----|
E|------------------------11-| 2x

G|-----------------------------------------------------------------|
D|---2-23-3355---33-22---------------------------------------------|
A|-33------------------33------0/7--77--77-----88--88-----77--77---|
E|------------------------11----------77--77-----88--88-----77--77-|

G|-----------------|
D|-3---5---6---5---| 
A|--33--55--66--55-|
E|-----------------|

Chorus 3
G|----------------------------------------------------|
D|---2-23-3355---33-22--------------------------3/5-5-| 
A|-33------------------33------33--33--------33-------|
E|------------------------11-----33--33---11----------|

G|-----------------------------------------------------------------|
D|---2-23-3355---33-22---------------------------------------------|
A|-33------------------33------0/7--77--77-----88--88-----77--77---|
E|------------------------11----------77--77-----88--88-----77--77-|

G|-----------------------|
D|-3-5-6-5---------------| 
A|--3-5-6-5-2-2-5-10/0---|
E|-----------3---------3-|

Repeat Chorus 2 pattern 2x to fade (improvise from the basic patterns of C and F)
            
Submit corrections



        Ligaya lessons Hard to play? Try these video lessons and learn fast Ligaya lessons
        
↑ Back to top | Tablatures and chords for acoustic guitar and electric guitar, ukulele, drums are parodies/interpretations of the original songs. You may use it for private study, scholarship, research or language learning purposes only