» » »

Eraserheads - Huling El Bimbo Bass

Artists:  A B C D E F G H I J K L M N O P Q R S T U V W X Y Z # 

Huling El Bimbo Bass

(ver. 1) Click to play this song!
Eraserheads
 Rating:
4/5 (4 votes)


 Huling El Bimbo lessons Tabs too difficult? Try these video lessons and learn fast
 
                Pls. rate this properly OK!
Intro:
G|---------------------------------------|\--|
D|-------------------------------------------| \
A|-5-54-0-0-0-2/4-4----------------------|---|2x
E|-----------------5-------------------------|

Paulit-ulit lng po un ^ ok ^_^.....

Refrain:
G|----------------------------------------------------|
D|----------------------------------------------------|
A|-2-22-2-222------------3-33-33-3-33-33333333333333--|
E|------------3-33-3-333------------------------------|
            
Submit corrections



        Huling El Bimbo lessons Hard to play? Try these video lessons and learn fast Huling El Bimbo lessons
        
↑ Back to top | Tablatures and chords for acoustic guitar and electric guitar, ukulele, drums are parodies/interpretations of the original songs. You may use it for private study, scholarship, research or language learning purposes only