» » »

Engelbert Humperdinck - The Last Waltz Tabs

Artists:  A B C D E F G H I J K L M N O P Q R S T U V W X Y Z # 

The Last Waltz Tabs

(ver. 1) Click to play this song!
Engelbert Humperdinck
 Rating:
4.3/5 (21 vote)

 The Last Waltz lessons Tabs too difficult? Try these video lessons and learn fast
 
                

e|---------6-6/7--6--------|------------------------|
B|-7--9------------7--9----|-11-11-9-9h11-11-7-7h9-9|
G|-------------------------|------------------------|
D|-------------------------|------------------------|
A|-------------------------|------------------------|
E|-------------------------|------------------------|

e|--9/10--7--5--7--5-------|-------------------- ---|
B|--------------------3--5-|-5h7-5-7-2-3h5-5--------|
G|-------------------------|------------------------|
D|-------------------------|------------------------|
A|-------------------------|------------------------|
E|-------------------------|------------------------|
 
            
Submit corrections


        The Last Waltz lessons Hard to play? Try these video lessons and learn fast The Last Waltz lessons
        
↑ Back to top | Tablatures and chords for acoustic guitar and electric guitar, ukulele, drums are parodies/interpretations of the original songs. You may use it for private study, scholarship, research or language learning purposes only