» » »

El Vy - Paul Is Alive Tabs

Artists:  A B C D E F G H I J K L M N O P Q R S T U V W X Y Z # 

Paul Is Alive Tabs

(ver. 1) Click to play this song!
El Vy
 Rating:
3.3/5 (23 votes)

 Paul Is Alive  lessons Tabs too difficult? Try these video lessons and learn fast
 
                (0:03)
e|--------------------------------------------------------------------------------|
B|---3---3---3---3---3---3---2---2---2---2---2------------------------------------|
G|-----2---2---2---2---2---2---2---2---2---2---2----------------------------------|
D|--------------------------------------------------------------------------------| x6
A|--------------------------------------------------------------------------------|
E|--------------------------------------------------------------------------------|

(0:33) and (1:04)
e|---10-10-10\-5-5--3-3--2--0--2--3p2p0--2----------------------------------------|
B|--------------------------------------------------------------------------------|
G|--------------------------------------------------------------------------------|
D|--------------------------------------------------------------------------------| x2
A|--------------------------------------------------------------------------------|
E|--------------------------------------------------------------------------------|

(1:14) and (2:43)
e|-----------------------------------------12----9--------------------------------|
B|-----7---7---7-----10----10----10------------------10---------------------------|
G|---6---6---6---/11----11----11--------------------------------------------------|
D|-----------------------------------11-11----11---11-----------------------------| x3
A|--------------------------------------------------------------------------------|
E|--------------------------------------------------------------------------------|

(1:29) and (2:58)
e|--------------------------------------------------------------------------------|
B|-----7---7---7-----10----10----10---9---9---9---9---9---9-----------------------|
G|---6---6---6---/11----11----11----9---9---9---9---9---9-------------------------|
D|--------------------------------------------------------------------------------| x1
A|--------------------------------------------------------------------------------|
E|--------------------------------------------------------------------------------|

(2:00)
e|--2-------2---2--5--4/9--4/9--4/-----4/7--5-5--4-4--2---4-7--5-5--4-4--2-1p2p4--|
B|----2---2---2-------------------------------------------------------------------|
G|------2-------------------------------------------------------------------------|
D|--------------------------------------------------------------------------------| x2
A|--------------------------------------------------------------------------------|
E|--------------------------------------------------------------------------------|

(2:20)
e|--2-----------------------------------------------------------------------------|
B|----2---2-----------------------------------------------------------------------|
G|------2-------------------------------------------------------------------------|
D|----------4---------------------------------------------------------------------| x1
A|--------------------------------------------------------------------------------| 
E|--------------------------------------------------------------------------------|

(2:28)
e|---------0-0--------------------------------------------------------------------|
B|-------------2----4--------4----------------------------------------------------|
G|------2--------------4----------------------------------------------------------|
D|---2--------------------4-------------------------------------------------------| x1
A|--------------------------------------------------------------------------------|
E|--------------------------------------------------------------------------------|            
Submit corrections


        Paul Is Alive  lessons Hard to play? Try these video lessons and learn fast Paul Is Alive  lessons
        
↑ Back to top | Tablatures and chords for acoustic guitar and electric guitar, ukulele, drums are parodies/interpretations of the original songs. You may use it for private study, scholarship, research or language learning purposes only