» » »

Elvis Perkins - While You Were Sleeping Tabs

Artists:  A B C D E F G H I J K L M N O P Q R S T U V W X Y Z # 

While You Were Sleeping Tabs

(ver. 1) Click to play this song!
Elvis Perkins
 Rating:
4.1/5 (7 votes)
    While You Were Sleeping lessons Tabs too difficult? Try these video lessons and learn fast
                (Intro)
----------------------------------------------------------------------------
                 While you were sleeping (intro) - Elvis Perkins
----------------------------------------------------------------------------

Tuning: standard
CAPO on 3

e|----3---0-----------------------0-0-0--3-3--0--0-0-0--3-3--0--etc--------|
B|------3----1-----1--------------1-1-1--0-0--1--1-1-1--0-0--1--etc--------|
G|--------------2-----------------0-0-0--0-0--2--2-2-2--0-0--0--etc--------|
D|--------------------2--0--------2-2-2--0-0--2--2-2-2--0-0--2--etc--------|
A|--------------------------3-----3-3-3--2-2--0--0-0-0--2-2--3--etc--------|
E|---------------------------------------3-3------------3-3-----etc--------|
            
Submit corrections

↑ Back to top | Tablatures and chords for acoustic guitar and electric guitar, ukulele, drums are parodies/interpretations of the original songs. You may use it for private study, scholarship, research or language learning purposes only