» » »

Elvis Costello - Watching The Detectives Tabs

Artists:  A B C D E F G H I J K L M N O P Q R S T U V W X Y Z # 

Watching The Detectives Tabs

(ver. 1) Click to play this song!
Elvis Costello
 Rating:
4/5 (4 votes)

 Watching The Detectives lessons Tabs too difficult? Try these video lessons and learn fast
 
                Gtr I (E A D G B E) - 'Elvis Costello - Electric Guitar'


 Intro
  Q=137(8=s8)
  N.C.
 4/4
  Gtr I
  W          Wx4
|----------|--------|
|----------|--------|
|----------|--------|
|----------|--------|
|----------|--------|
|----------|--------|


     Am                                F
  Q  e e E e e e   E e e e E e e e   E e e e E e e e   E e e e E e e e
|----------------|-----------------|-----------------|-----------------|
|----1-1-----1-1-|-----1-1-----1-1-|-----1-1-----1-1-|-----1-1-----1-1-|
|----2-2-----2-2-|-----2-2-----2-2-|-----2-2-----2-2-|-----2-2-----2-2-|
|----------2-----|---2-------2-----|---3-------3-----|---3-------3-----|
|----------------|-----------------|-----------------|-----------------|
|----------------|-----------------|-----------------|-----------------|


    Am                                  F
  E e e e E e e e   E e e e E e e e   E e e e E e e e   E e E e E e E e
|-----------------|-----------------|-----------------|-----------------||
|-----1-1-----1-1-|-----1-1-----1-1-|-----1-1-----1-1-|---1---1---1---1-||
|-----2-2-----2-2-|-----2-2-----2-2-|-----2-2-----2-2-|---2---2---2---2-||
|---2-------2-----|---2-------2-----|---3-------3-----|-----------------||
|-----------------|-----------------|-----------------|-----------------||
|-----------------|-----------------|-----------------|-----------------||


 1st Verse
     Am                                F
  Q  e e E e E e   E e e e E e e E   E e e e E e e e   E e e e E e e e
|----------------|-----------------|-----------------|-----------------|
|----1-1---1---1-|---1-1-1---1-1-0-|-----1-1-----1-1-|-----1-1-----1-1-|
|----2-2---2---2-|---2-2-2---2-2-0-|-----2-2-----2-2-|-----2-2-----2-2-|
|----------------|-----------------|---3-------3-----|---3-------3-----|
|----------------|-----------------|-----------------|-----------------|
|----------------|-----------------|-----------------|-----------------|


    Am                                  F
  E e e e E e E e   E e E e E e Q    Q  e e E e e e   E e e e E e e e
|-----------------|----------------|----------------|-----------------|
|---1-1-----1---1-|---1---1--------|----1-1-----1-1-|-----1-1-----1-1-|
|---2-2-2---------|-----------2----|----2-2-----2-2-|-----2-2-----2-2-|
|-----------------|----------------|----------3-----|---3-------3-----|
|-----------------|----------------|----------------|-----------------|
|-----------------|----------------|----------------|-----------------|


  Am                                   F
  e e e e e e e e   Q  e e E e E E   E e Q  E e E E   +Q   e e E e e e
|-----------------|----------------|----------------|------------------||
|---1---1-----1-1-|----1-1---1---0-|---1------1---1-|-(1)--1-1-------1-||
|---2---2---2-2-2-|----2-2---2---0-|---2------2---2-|-(2)--2-2---2-----||
|-2---2---2-------|----------------|----------------|------------------||
|-----------------|----------------|----------------|------------------||
|-----------------|----------------|----------------|------------------||


   Chorus
            C                                 N.C.
    H    Q  e e   e e e e e e e e   H    Q  E e   Q  e e E e e e
||--------------|-----------------|-------------|-----------------|
||o---------1-1-|-----1-1-----1-1-|-----------3-|----3-3---3-3-3--|
||----------0-0-|-----------------|-------------|-----------------|
||--------------|---2-------2-----|-------------|-----------------|
||o-------------|-3-------3-------|-------------|-----------------|
||--------------|-----------------|-------------|-----------------|


                                 G5        F5   D
  W          E e e e Q  E e   Q  Q  H      H    Q  Q
|----------|----------------|------------|---------2--||
|----------|-------1--------|----3-------|------3--3--||
|----------|---0----------0-|----0-------|-5----2--2--||
|----------|----------------|-------2----|-3----------||
|----------|----------------|------------|------------||
|----------|----------------|------------|------------||


 Bridge
  Am
                                    2/4
  Q  Q  H      W          W          W
|------------|----------|----------|------|
|-1----------|----------|----------|------|
|-2----------|----------|----------|------|
|------------|----------|----------|------|
|------------|----------|----------|------|
|------------|----------|----------|------|


                  1.
     C                               G
 4/4
  Q  e e e e e e   e e e e e e e e   e e e e Q  e e   e e e e e e e e
|----------------|-----------------|----------------|------------------||
|----------------|-----------------|-------3--------|-------3-----3----||
|----0-0-----0-0-|-----0-0-----0-0-|-------4----4-4-|-----4-4-----4-4--||
|----2-2-----2-2-|-----2-2-----2-2-|-----5------5-5-|-5-5-5---5-5---5--||
|--------3-3-----|-3-3-----3-3-----|----------------|------------------||
|----------------|-----------------|-3-3------------|------------------||


 2nd Verse
  N.C.
  e e e E Q  E e   E e e E Q  e e   e e e e e e e e   e e e e e e e e
|----------------|----------------|-----------------|-----------------|
|----------------|----------------|-----------------|-----------------|
|----------------|-----2--------0-|-----------------|-----------------|
|-2-2-2--------2-|---2-2------2---|-----------------|-----------------|
|----------------|----------------|-----------------|-----------------|
|----------------|----------------|-1-1-1-1-1-1-1-1-|-1-1-1-1-1-1-1-1-|


  E e e e E e e e   E e e e E e e e   q  q  q  e e   q  q  q  e e
|-----------------|-----------------|--------------|--------------|
|-----------------|-----------------|--------------|--------------|
|---2-2-2---2-2-2-|---2-2-2---2-2-2-|--------------|----------0-0-|
|---2-2-2---2-2-2-|---2-2-2---2-2-2-|--------------|----------0-0-|
|-----------------|-----------------|----------3-3-|--------------|
|-----------------|-----------------|-1--1--1------|-1--1--1------|


                                  F
  Q  e e Q  e e   Q  e e Q  e e   e e e e e e e e   e e e e e e e e
|---------------|---------------|-----------------|-----------------|
|---------------|---------------|-----------------|-------1-----1-0-|
|----2-2----2-2-|----2-2----2-2-|-----2-2-----2-2-|-2-2-2-2-----2---|
|----2-2----2-2-|----2-2----2-2-|-----3-3-----3-3-|-3-3-3-----------|
|---------------|---------------|-----------------|-----------------|
|---------------|---------------|-1-1-----1-1-----|---------1-1-----|


  Am                                  F
  e e e e e e e e   e e e e e e e e   q  q  e e E e   E E e e e e e e
|-----------------|-----------------|---------------|-----------------|
|-----1-1-----1-1-|-----1-1-----1-1-|-------------1-|---1-------------|
|---2-------2-----|---2-------2-----|---------------|---2-------------|
|-2-------2-------|-2-------2-------|---------------|-----------------|
|-----------------|-----------------|---------------|-----------------|
|-----------------|-----------------|-1--1--1-1-1---|-----1---1-1-3-3-|


  Am                              F
  q  e e q  e e   q  e e q  e e   e e e e e e e e   e e q  e e q
|---------------|---------------|-----------------|----------------||
|---------------|---------------|-----------------|---------------o||
|---------------|---------------|---------------2-|----------------||
|-2--2-2-2--2-2-|-2--2-2-2--2-2-|---------------3-|----------------||
|-0--0-0-0--0-0-|-0--0-0-0--0-0-|-----------------|---------------o||
|---------------|---------------|-1-1-1-1-1-1-1---|-1-1-1--1-1-1---||


                                                        3rd Verse
  2.
    C                 G                                  Am
  E e e E E e e E   E e e e E e e e   E e e e E e e e    q  e e q  e e
|-----------------|-----------------|-----------------||---------------|
|-------1---------|-----0-0---0-0-0-|-----0-0---0-0-0-||---------------|
|-------0-----0---|---0-0-0---0-0-0-|---0-0-0---0-0-0-||----2-2----2-2-|
|---2-2-----2-2---|-----------------|-----------------||----2-2----2-2-|
|-----------------|-----------------|-----------------||-0------0------|
|-----------------|-----------------|-----------------||---------------|


                  F                                  Am
  q  e e q  e e   q  q  q  e e   e e e e e e e e   E e e e E e e e
|---------------|--------------|-----------------|-----------------|
|---------------|--------------|-----------------|-----------------|
|----2-2----2-2-|--------------|-----------------|---2---2---2---2-|
|----2-2----2-2-|--------------|---3---3-3-3-5-5-|-----2-------2---|
|-0------0------|-3--3--3--3-3-|-----------------|-----0-------0---|
|---------------|-1--1--1--1-1-|-1---1-----------|-----------------|


                    F                               A5
  e e e e e e e e   q  e e q  e e   q  e e q  e e   e e e e e e e e
|-----------------|---------------|---------------|-----------------|
|---1-------------|---------------|---------------|-----------------|
|-------2---2---0-|------2------2-|------2------0-|-----------------|
|-----------------|---------------|---------------|-2-2-2-2-2-2-2-2-|
|-0---------------|-3--3---3--3---|-3--3---3--3---|-0-0-0-0-0-0-0-0-|
|-----------------|-1--1---1--1---|-1--1---1--1---|-----------------|


                    F5                                  Am
  e e e e e e e e   e e e e e e e e   e e e e e e e e   Q  e e Q.   e
|-----------------|-----------------|-----------------|---------------|
|-----------------|-----------------|-----------------|---------------|
|-----------------|-----------------|-----------------|-2----2------2-|
|-2-2-2-2-2-2-2-2-|-----------------|-----------------|-2----2------2-|
|-0-0-0-0-0-0-0-0-|-3-3-3-3-3-3-3-3-|-3-3-3-3-3-3-3-3-|----0---0------|
|-----------------|-1-1-1-1-1-1-1-1-|-1-1-1-1-1-1-1-1-|---------------|


                                              Outro
                    F                             C
                                    2/4       4/4
                                     |3|
  e e e e e e e E   e e Q  e e e e   E Q Q     Q  e e Q  e e
|-----------------|----------------|--------||---------------|
|-----------------|-1--------------|--------||---------------|
|---2---2---2-----|----------------|--------||----0-0----0-0-|
|-----------------|----------------|--------||----2-2----2-2-|
|-0---0---0---0---|----------------|--------||---------------|
|-----------------|---1----1-1---1-|-1-1-1--||---------------|


                     G                            N.C.
  Q  e e Q  e e   Q  e e Q  e e   Q  e e Q  e e    W
|---------------|---------------|---------------|-------|
|---------------|----0-0----0-0-|----0-0----0-0-|-------|
|----0-0----0-0-|----0-0----0-0-|----0-0----0-0-|-------|
|----2-2----2-2-|---------------|---------------|-------|
|---------------|---------------|---------------|-------|
|---------------|---------------|---------------|-------|


                                             Am
  E e Q  H      W          E e E e E e e E   Q  Q  H
|-------------|----------|-----------------|------------|
|-------------|----------|-----------------|-1----------|
|---0---------|----------|---0---0---0-0---|-2----------|
|-------------|----------|-----------------|------------|
|-------------|----------|-----------------|------------|
|-------------|----------|-----------------|------------|


                                      C
                         2/4    4/4
  H    Q  Q    W          W      H    Q.   e
|------------|----------|------|-------------|
|------------|----------|------|-----------1-|
|------------|----------|------|-----------0-|
|------------|----------|------|-------------|
|------------|----------|------|-------------|
|---------3--|----------|------|------3------|


                    G                              Am
  E e e e E e e e   Q  Q  Q  Q    E e e E E E Q    Q  e e Q  e e
|-----------------|-------------|----------------|---------------|
|-----------------|-------------|-------------0--|-1-------------|
|---0-0-0---0-0-0-|-------------|---0-0-------0--|-2--2-2----2-2-|
|-----------------|-------------|----------------|---------------|
|-----------------|-------------|----------------|---------------|
|-----------------|-3--3--3--3--|-3-------3------|---------------|


                       F                             Am
  E e e e E e e e   Q  e E Q  q    E e e e E e e E   E e e e E e e e
|-----------------|--------------|-----------------|-----------------|
|-----------------|--------------|-----------------|---1-1-1---1-1-1-|
|---2-2-2---2-2-2-|--------------|-----------------|---2-2-2---2-2-2-|
|-----------------|----3---------|---3-3-3---3-3---|-----------------|
|-----------------|-----------3--|---3-3-3---3-3---|-0-------0-------|
|-----------------|--------------|-----------------|-----------------|


                    F                                  Am
  E e e e E e e e   Q  e E Q  e e   q  e e q  e e   Q  e e Q  e E
|-----------------|---------------|---------------|---------------|
|---1-1-1---1-1-1-|---------------|---------------|----1-1----1---|
|---2-2-2---2-2-2-|---------------|----5-5----5-5-|----2-2----2---|
|-----------------|----3------3-3-|----3-3----3-3-|---------------|
|-0-------0-------|----3------3-3-|---------------|---------------|
|-----------------|-1-------------|---------------|---------------|


                     F                                  Am
  Q  e e e e e e   E e e e Q  e E   Q  e e E e e e   Q  e e E e q
|----------------|----------------|----------------|---------------|
|------------1-1-|---1-1-1----1---|----1-1---1-1-1-|----1-1---1-1--|
|----2-------2-2-|---2-2-2----2---|----2-2---2-2-2-|----2-2---2-2--|
|------2---------|---3-3-3----3---|----3-3---3-3-3-|---------------|
|--------0-0-----|----------------|----------------|---------------|
|----------------|----------------|----------------|---------------|


                    F
  E e e e E e e e   Q  e e Q  e e   Q  e e E e q
|-----------------|---------------|---------------*|
|---1-1-1---1-1-1-|----1-1----1-1-|----1-1---1-1--*|
|---2-2-2---2-2-2-|----2-2----2-2-|----2-2---2-2--*|
|-----------------|---------------|---------------*|
|-----------------|---------------|---------------*|
|-----------------|---------------|---------------*|


            
Submit corrections


        Watching The Detectives lessons Hard to play? Try these video lessons and learn fast Watching The Detectives lessons
        
↑ Back to top | Tablatures and chords for acoustic guitar and electric guitar, ukulele, drums are parodies/interpretations of the original songs. You may use it for private study, scholarship, research or language learning purposes only