» » »

Elvis Costello - Olivers Army Bass Tabs

Artists:  A B C D E F G H I J K L M N O P Q R S T U V W X Y Z # 

Olivers Army Bass Tabs

(ver. 1) Click to play this song!
Elvis Costello
 Rating:
4.3/5 (23 votes)

 Olivers Army Bass lessons Tabs too difficult? Try these video lessons and learn fast
 
                [Intro]
G|---------------------------------|---------------------------------|
D|---------------------------------|7-----------7---4----------------|
A|----------------4-------7--------|--------------------7-------7----|
E|5-----------5--------------------|------------------------5--------|

G|---------------------------------|---------------------------------|
D|---------------------------------|---------------------------------|
A|5-----------5---4-----------4----|----------------7-------7--------|
E|---------------------------------|7-----------7--------------------|

G|---------------------------------|---------------------------------|
D|---------------------------------|7-----------7---4----------------|
A|----------------4-------7--------|--------------------7-------7----|
E|5-----------5--------------------|------------------------5--------|

G|---------------------------------|---------------------------------|
D|---------------------------------|---------------------------------|
A|5-----------5---4-----------4----|7---7---7-------7---7---7--------|
E|---------------------------------|---------------------------------|

[Verse 1]
G|---------------------------------|---------------------------------|
D|---------------------------------|7-----------7---4----------------|
A|----------------4-------7--------|--------------------7-------7----|
E|5-----------5--------------------|------------------------5--------|

G|---------------------------------|---------------------------------|
D|---------------------------------|---------------------------------|
A|5-----------5---4-----------4----|----------------7-------7--------|
E|---------------------------------|7-----------7--------------------|

G|---------------------------------|---------------------------------|
D|---------------------------------|7-----------7---4----------------|
A|----------------4-------7--------|--------------------7-------7----|
E|5-----------5--------------------|------------------------5--------|

G|---------------------------------|---------------------------------|
D|---------------------------------|----------------6----------------|
A|5-----------5-----------5--------|4-----------4-----------4--------|
E|----------------5----------------|---------------------------------|

G|---------------------------------|---------------------------------|
D|4-------2-------1----------------|---------------------------------|
A|------------------------4--------|2-------0------------------------|
E|---------------------------------|----------------4-------2--------|

G|---------------------------------|---------------------------------|
D|4-------2-------1----------------|---------------------------------|
A|------------------------4--------|2---4---5---6---7---5---\--------|
E|---------------------------------|---------------------------------|

[Chorus]
G|---------------------------------|---------------------------------|
D|---------------------------------|---------------------------------|
A|----------------4---5---7--------|5-----------5---7-------7---\----|
E|5-----------5--------------------|---------------------------------|

G|---------------------------------|---------------------------------|
D|---------------------------------|4-----------4---6-----------6----|
A|----------------4---5---7--------|------------------------------7--|
E|5-----------5--------------------|---------------------------------|

G|---------------------------------|---------------------------------|
D|7-----------7---6-----------6----|4-----------4--------------------|
A|---------------------------------|----------------7-----------7----|
E|---------------------------------|---------------------------------|

G|---------------------------------|---------------------------------|
D|---------------------------------|---------------------------------|
A|5-----------5---4----------------|----------------7---7---7---7----|
E|---------------------------------|7---7---7---7--------------------|

[Interlude]
G|---------------------------------|---------------------------------|
D|---------------------------------|7-----------7---4----------------|
A|----------------4-------7--------|--------------------7-------7-\--|
E|5-----------5--------------------|------------------------5--------|

G|---------------------------------|---------------------------------|
D|---------------------------------|---------------------------------|
A|5-----------5---4-----------4----|7---7---7------------------------|
E|---------------------------------|----------------0---0---0---0-\--|

[Verse 2]
G|---------------------------------|---------------------------------|
D|---------------------------------|7-----------7---4----------------|
A|----------------4-------7--------|--------------------7-------7----|
E|5-----------5--------------------|------------------------5--------|

G|---------------------------------|---------------------------------|
D|---------------------------------|---------------------------------|
A|5-----------5---4-----------4----|----------------7-------4---2----|
E|---------------------------------|7-----------7--------------------|

G|---------------------------------|---------------------------------|
D|---------------------------------|7-----------7---4----------------|
A|----------------4-------7--------|--------------------7-------7----|
E|5-----------5--------------------|------------------------5--------|

G|---------------------------------|---------------------------------|
D|---------------------------------|----------------6----------------|
A|5-----------5-----------5--------|4-----------4-----------4--------|
E|----------------5----------------|---------------------------------|

G|---------------------------------|---------------------------------|
D|4-------2-------1----------------|---------------------------------|
A|------------------------4--------|2-------0------------------------|
E|---------------------------------|----------------4-------2--------|

G|---------------------------------|---------------------------------|
D|4-------2-------1----------------|---------------------------------|
A|------------------------4--------|2---4---5---6---7---5---\--------|
E|---------------------------------|---------------------------------|

[Chorus]
G|---------------------------------|---------------------------------|
D|---------------------------------|---------------------------------|
A|----------------4---4---7---7----|5-----------5---7-------4---2----|
E|5-----------5--------------------|---------------------------------|

G|---------------------------------|---------------------------------|
D|---------------------------------|4-----------4---6-----------6----|
A|----------------4-------7--------|---------------------------------|
E|5-----------5--------------------|---------------------------------|

G|---------------------------------|---------------------------------|
D|7-----------7---6-----------6----|4-----------4--------------------|
A|---------------------------------|----------------7-----------7----|
E|---------------------------------|---------------------------------|

G|---------------------------------|---------------------------------|
D|---------------------------------|---------------------------------|
A|5-----------5---4----------------|----------------7-------4--------|
E|---------------------------------|7---------------------------7----|

[Interlude]
G|---------------------------------|---------------------------------|
D|---------------------------------|7-----------7---4----------------|
A|----------------4-------7--------|--------------------7-------7-\--|
E|5-----------5--------------------|------------------------5--------|

G|---------------------------------|---------------------------------|
D|---------------------------------|---------------------------------|
A|5-----------5---5-----------0----|7-----------7---7----------------|
E|---------------------------------|----------------------------3----|

[Bridge]
G|---------------------------------|---------------------------------|
D|---------------------------------|---------------------------------|
A|----------------1-------2--------|4-----------4-----------4--------|
E|4-----------4--------------------|----------------2----------------|

G|---------------------------------|---------------------------------|
D|---------------------------------|---------------------------------|
A|2-----------2-----------2--------|1-----------1---1----------------|
E|----------------2----------------|---------------------------------|

G|------------------------6--------|---------------------------------|
D|--------3-------6----------------|4-----------4--------------------|
A|4--------------------------------|----------------4-----------5----|
E|---------------------------------|---------------------------------|

G|---------------------------------|----------------3----------------|
D|----------------6----------------|4-----------4-----------4--------|
A|7-----------7-----------7--------|---------------------------------|
E|---------------------------------|---------------------------------|

G|----------------9----------------|11-------------------------------|
D|9-----------9-----------9--------|--------11-----------------------|
A|---------------------------------|----------------9-------9--------|
E|---------------------------------|---------------------------------|

G|11-------------------------------|
D|----11--9---\---4-------4---\----|
A|---------------------------------|
E|---------------------------------|

[Verse 3]
G|---------------------------------|---------------------------------|
D|---------------------------------|9-----------9---6----------------|
A|----------------6-------9--------|--------------------9-------9----|
E|7-----------7--------------------|------------------------7--------|

G|---------------------------------|---------------------------------|
D|---------------------------------|---------------------------------|
A|7-----------7---6-----------6----|4-----------4--------------------|
E|---------------------------------|----------------2-----------2----|

G|---------------------------------|4--------------------------------|
D|----------------1-------4--------|------------9---6----------------|
A|2-----------2--------------------|--------------------9------------|
E|---------------------------------|------------------------7--------|

G|---------------------------------|---------------------------------|
D|---------------------------------|----------------8----------------|
A|7-----------7-----------7--------|6-----------6-----------6--------|
E|----------------7----------------|---------------------------------|

G|---------------------------------|---------------------------------|
D|6-------4-------3-------1--------|---------------------------------|
A|---------------------------------|4-------2-------1----------------|
E|---------------------------------|------------------------4--------|

G|---------------------------------|---------------------------------|
D|6-------4-------3-------1--------|---------------------------------|
A|---------------------------------|4---6---7---8---9---7---\--------|
E|---------------------------------|---------------------------------|

[Chorus]
G|---------------------------------|---------------------------------|
D|---------------------------------|---------------------------------|
A|----------------6-------9--------|7---------------9----------------|
E|7-----------7--------------------|------------------------9--------|

G|---------------------------------|---------------------------------|
D|---------------------------------|---------------------------------|
A|----------------6-------9--------|7-----------7---9-------9--------|
E|7-----------7--------------------|---------------------------------|

G|---------------------------------|---------------------------------|
D|---------------------------------|6-----------6---4----------------|
A|----------------6---7---9--------|----------------------------9----|
E|7-----------7--------------------|---------------------------------|

G|---------------------------------|---------------------------------|
D|9-----------9---8-----------8----|6-----------6---4-------4---4----|
A|---------------------------------|---------------------------------|
E|---------------------------------|---------------------------------|

G|---------------------------------|---------------------------------|
D|------------------------6--------|---------------------------------|
A|7-----------7---6----------------|---------------------------------|
E|---------------------------------|2---2---2---2---2---2---2---2----|

G|---------------------------------|---------------------------------|
D|------------9---8-----------8----|6-----------6---4----------------|
A|2--------------------------------|---------------------------------|
E|---------------------------------|----------------------------7----|

G|---------------------------------|---------------------------------|
D|------------------------6--------|4---4---4---4---4---4---4---4----|
A|7-----------7---6----------------|---------------------------------|
E|---------------------------------|---------------------------------|

G|---------------------------------|---------------------------------|
D|9-----------9---8-----------8----|6-----------6---4----------------|
A|---------------------------------|---------------------------------|
E|---------------------------------|----------------------------7----|

G|---------------------------------|---------------------------------|
D|------------------------6--------|---------------------------------|
A|7-----------7---6----------------|---------------------------------|
E|---------------------------------|2-------2-------2-------2--------|

G|---------------------------------|---------------------------------|
D|---------------------------------|9-----------9---6----------------|
A|----------------6-------9--------|--------------------9-------9----|
E|7-----------7--------------------|------------------------7--------|

G|---------------------------------|---------------------------------|
D|---------------------------------|---------------------------------|
A|7-----------7---6-----------6----|4-------4------------------------|
E|---------------------------------|----------------2-------2--------|

G|---------------------------------|---------------------------------|
D|---------------------------------|9-----------9---6----------------|
A|----------------6---7---9--------|--------------------9-------9----|
E|7-----------7--------------------|------------------------7--------|

G|---------------------------------|---------------------------------|
D|---------------------------------|---------------------------------|
A|7-----------7---6-----------6----|4-------4------------------------|
E|---------------------------------|----------------2-------2--------|            
Submit corrections


        Olivers Army Bass lessons Hard to play? Try these video lessons and learn fast Olivers Army Bass lessons
        
↑ Back to top | Tablatures and chords for acoustic guitar and electric guitar, ukulele, drums are parodies/interpretations of the original songs. You may use it for private study, scholarship, research or language learning purposes only