Home » E » Eluveitie »

Eluveitie - A Rose For Epona Tabs

Artists:  A B C D E F G H I J K L M N O P Q R S T U V W X Y Z # 

A Rose For Epona Tabs

(ver. 1) Click to play this song!
Eluveitie
Tuning: Standart (E-A-D-G-B-E)

e|-------14-17---------14-17---------14-17----------------------------14-17--|
B|--/15~--------14-15~--------14-15~--------14-15~-14-------------15~--------|
G|----------------------------------------------------14-14----14------------|
D|----------------------------------------------------------15---------------|
A|---------------------------------------------------------------------------|
E|---------------------------------------------------------------------------|

e|---------14-17-----------------14-17---------------------------------------|
B|--14-15~-------14h15p14\12-12--------14-15--14-14-14----14~----------------|
G|-----------------------------------------------------14--------------------|
D|---------------------------------------------------------------------------|
A|---------------------------------------------------------------------------|
E|---------------------------------------------------------------------------|
            
Submit corrections

↑ Back to top | Tablatures and chords for acoustic guitar and electric guitar, ukulele, drums are parodies/interpretations of the original songs. You may use it for private study, scholarship, research or language learning purposes only