Home » E » Eluveitie »

Eluveitie - Ambiramus Tabs

Artists:  A B C D E F G H I J K L M N O P Q R S T U V W X Y Z # 

Ambiramus Tabs

(ver. 1) Click to play this song!
Eluveitie
[Intro]
e|-----------------|-----------------|-----------------|-----------------|
B|-----------------|-----------------|-----------------|-----------------|
G|-----------------|-----------------|-----------------|-----------------|
D|-----------------|-----------------|-----------------|-----------------|
A|-----------------|-4-4-4-4-4-4-4-4-|-----------------|-----------------|
E|-6-6-6-6-6-6-6-6-|-2-2-2-2-2-2-2-2-|-4-4-4-4-4-4-4-4-|-2-2-2-2-4-4-4-4-|
B|-4-4-4-4-4-4-4-4-|-----------------|-2-2-2-2-2-2-2-2-|-0-0-0-0-2-2-2-2-|

e|-----------------|-----------------|-----------------|-----------------|
B|-----------------|-----------------|-----------------|-----------------|
G|-----------------|-----------------|-----------------|-----------------|
D|-----------------|-----------------|-----------------|-----------------|
A|-----------------|-4-4-4-4-4-4-4-4-|-----------------|-----------------|
E|-6-6-6-6-6-6-6-6-|-2-2-2-2-2-2-2-2-|-2-2-2-2-2-2-2-2-|-4-4-4-4-4-4-4-4-|
B|-4-4-4-4-4-4-4-4-|-----------------|-0-0-0-0-0-0-0-0-|-2-2-2-2-2-2-2-2-|

[Verse 1]
e|---|---|---|---|
B|---|---|---|---|
G|---|---|---|---|
D|---|---|---|---| (X4)
A|---|---|---|---|
E|---|---|---|---|
B|---|---|---|---|

[Prechorus]
  Pm................................................................
e|-----------------|-----------------|-----------------|-----------------|
B|-----------------|-----------------|-----------------|-----------------|
G|-----------------|-----------------|-----------------|-----------------|
D|-----------------|-----------------|-----------------|-----------------|
A|-----------------|-----------------|-----------------|-----------------|
E|-2-2-2-2-2-2-2-2-|-4-4-4-4-4-4-4-4-|-6-6-6-6-6-6-2-2-|-4-4-4-4-4-4-----|
B|-0-0-0-0-0-0-0-0-|-2-2-2-2-2-2-2-2-|-4-4-4-4-4-4-0-0-|-2-2-2-2-2-2-----|

[Chorus]
e|-----------------|-----------------|-----------------|-----------------|
B|-----------------|-----------------|-----------------|-----------------|
G|-----------------|-----------------|-----------------|-----------------|
D|-----------------|-----------------|-----------------|-----------------|
A|-----------------|-4-4-4-4-4-4-4-4-|-----------------|-----------------|
E|-6-6-6-6-6-6-6-6-|-2-2-2-2-2-2-2-2-|-4-4-4-4-4-4-4-4-|-2-2-2-2-4-4-4-4-|
B|-4-4-4-4-4-4-4-4-|-----------------|-2-2-2-2-2-2-2-2-|-0-0-0-0-2-2-2-2-|

e|-----------------|-----------------|-----------------|-----------------|
B|-----------------|-----------------|-----------------|-----------------|
G|-----------------|-----------------|-----------------|-----------------|
D|-----------------|-----------------|-----------------|-----------------|
A|-----------------|-4-4-4-4-4-4-4-4-|-----------------|-----------------|
E|-6-6-6-6-6-6-6-6-|-2-2-2-2-2-2-2-2-|-2-2-2-2-2-2-2-2-|-4-4-4-4-4-4-4-4-|
B|-4-4-4-4-4-4-4-4-|-----------------|-0-0-0-0-0-0-0-0-|-2-2-2-2-2-2-2-2-|

[Verse 2]
e|------------|------------|------------|------------|
B|------------|------------|------------|------------|
G|------------|------------|------------|------------|
D|------------|------------|------------|------------|
A|------------|------------|-4--4--4-4--|------------|
E|-6--6--6-6--|-2--2--2-2--|-2--2--2-2--|-4--4--4-4--|
B|-4--4--4-4--|-0--0--0-0--|------------|-2--2--2-2--|

e|------------|------------|------------|------------|
B|------------|------------|------------|------------|
G|------------|------------|------------|------------|
D|------------|------------|------------|------------|
A|------------|------------|-4--4--4-4--|------------|
E|-6--6--6-6--|-6--2--2-2--|-2--2--2-2--|-4--4--4-4--|
B|-4--4--4-4--|-4--0--0-0--|------------|-2--2--2-2--|

[Prechorus]
  Pm................................................................
e|-----------------|-----------------|-----------------|-----------------|
B|-----------------|-----------------|-----------------|-----------------|
G|-----------------|-----------------|-----------------|-----------------|
D|-----------------|-----------------|-----------------|-----------------|
A|-----------------|-----------------|-----------------|-----------------|
E|-2-2-2-2-2-2-2-2-|-4-4-4-4-4-4-4-4-|-6-6-6-6-6-6-2-2-|-4-4-4-4-4-4-----|
B|-0-0-0-0-0-0-0-0-|-2-2-2-2-2-2-2-2-|-4-4-4-4-4-4-0-0-|-2-2-2-2-2-2-----|

[Chorus]
e|-----------------|-----------------|-----------------|-----------------|
B|-----------------|-----------------|-----------------|-----------------|
G|-----------------|-----------------|-----------------|-----------------|
D|-----------------|-----------------|-----------------|-----------------|
A|-----------------|-4-4-4-4-4-4-4-4-|-----------------|-----------------|
E|-6-6-6-6-6-6-6-6-|-2-2-2-2-2-2-2-2-|-4-4-4-4-4-4-4-4-|-2-2-2-2-4-4-4-4-|
B|-4-4-4-4-4-4-4-4-|-----------------|-2-2-2-2-2-2-2-2-|-0-0-0-0-2-2-2-2-|

e|-----------------|-----------------|-----------------|-----------------|
B|-----------------|-----------------|-----------------|-----------------|
G|-----------------|-----------------|-----------------|-----------------|
D|-----------------|-----------------|-----------------|-----------------|
A|-----------------|-4-4-4-4-4-4-4-4-|-----------------|-----------------|
E|-6-6-6-6-6-6-6-6-|-2-2-2-2-2-2-2-2-|-2-2-2-2-2-2-2-2-|-4-4-4-4-4-4-4-4-|
B|-4-4-4-4-4-4-4-4-|-----------------|-0-0-0-0-0-0-0-0-|-2-2-2-2-2-2-2-2-|

[Bridge]
e|------------|------------|------------|------------|
B|------------|------------|------------|------------|
G|------------|------------|------------|------------|
D|------------|------------|------------|------------|
A|------------|------------|-6--6--6-6--|-6--6--6-6--|
E|-2--2--2-2--|-2--2--4-4--|-4--4--4-4--|-4--4--4-4--|
B|-0--0--0-0--|-0--0--2-2--|------------|------------|

e|------------|------------|------------|-----------|
B|------------|------------|------------|-----------|
G|------------|------------|------------|-----------|
D|------------|------------|------------|-----------|
A|------------|------------|-6--6--6-6--|-6--6------|
E|-2--2--2-2--|-4--4--4-4--|-4--4--4-4--|-4--4--4---|
B|-0--0--0-0--|-2--2--2-2--|------------|-------2---|

e|---|---|---|---|
B|---|---|---|---|
G|---|---|---|---|
D|---|---|---|---| (X2)
A|---|---|---|---|
E|---|---|---|---|
B|---|---|---|---|

e|---|
B|---|
G|---|
D|---|
A|---|
E|---|
B|---|

[Chorus]
e|-----------------|-----------------|-----------------|-----------------|
B|-----------------|-----------------|-----------------|-----------------|
G|-----------------|-----------------|-----------------|-----------------|
D|-----------------|-----------------|-----------------|-----------------|
A|-----------------|-4-4-4-4-4-4-4-4-|-----------------|-----------------|
E|-6-6-6-6-6-6-6-6-|-2-2-2-2-2-2-2-2-|-4-4-4-4-4-4-4-4-|-2-2-2-2-4-4-4-4-|
B|-4-4-4-4-4-4-4-4-|-----------------|-2-2-2-2-2-2-2-2-|-0-0-0-0-2-2-2-2-|

e|-----------------|-----------------|-----------------|-----------------|
B|-----------------|-----------------|-----------------|-----------------|
G|-----------------|-----------------|-----------------|-----------------|
D|-----------------|-----------------|-----------------|-----------------|
A|-----------------|-4-4-4-4-4-4-4-4-|-----------------|-----------------|
E|-6-6-6-6-6-6-6-6-|-2-2-2-2-2-2-2-2-|-2-2-2-2-2-2-2-2-|-4-4-4-4-4-4-4-4-|
B|-4-4-4-4-4-4-4-4-|-----------------|-0-0-0-0-0-0-0-0-|-2-2-2-2-2-2-2-2-|

[Outro]
e|-----------------|-----------------|-----------------|-----------------|
B|-----------------|-----------------|-----------------|-----------------|
G|-----------------|-----------------|-----------------|-----------------|
D|-----------------|-----------------|-----------------|-----------------|
A|-4-4-4-4-4-4-4-4-|-----------------|-7-7-7-7-7-7-7-7-|-2-2-2-2-2-2-2-2-|
E|-2-2-2-2-2-2-2-2-|-5-5-5-5-5-5-5-5-|-5-5-5-5-5-5-5-5-|-0-0-0-0-0-0-0-0-|
B|-----------------|-3-3-3-3-3-3-3-3-|-----------------|-----------------|

e|-----------------|-----------------|-----------------|-----------------|-------|
B|-----------------|-----------------|-----------------|-----------------|-------|
G|-----------------|-----------------|-----------------|-----------------|-------|
D|-----------------|-----------------|-----------------|-----------------|-------|
A|-4-4-4-4-4-4-4-4-|-----------------|-7-7-7-7-7-7-7-7-|-----------------|-4---x-|
E|-2-2-2-2-2-2-2-2-|-5-5-5-5-5-5-5-5-|-5-5-5-5-5-5-5-5-|-4-4-4-4-4-4-4-4-|-2---x-|
B|-----------------|-3-3-3-3-3-3-3-3-|-----------------|-2-2-2-2-2-2-2-2-|-------|

            
Submit corrections

↑ Back to top | Tablatures and chords for acoustic guitar and electric guitar, ukulele, drums are parodies/interpretations of the original songs. You may use it for private study, scholarship, research or language learning purposes only