Home » E » Elisa »

Elisa - Together Tabs

Artists:  A B C D E F G H I J K L M N O P Q R S T U V W X Y Z # 

Together Tabs

(ver. 1) Click to play this song!
Elisa



intro
|----------------------------------------|x2
|----------------------------------------|
|-5-5-5---5-5-5--5-6--3-3-3---3-3-3--3-6-|
|-5-5-5---5-5-5--5-6--3-3-3---3-3-3--3-6-|
|-3-3-3---3-3-3--3-4--1-1-1---1-1-1--1-4-|
|----------------------------------------|


verse
distortion guitar
|----------------------------------------|x4
|----------------------------------------|
|-5-5-5---5-5-5--5-6--3-3-3---3-3-3--3-6-|
|-5-5-5---5-5-5--5-6--3-3-3---3-3-3--3-6-|
|-3-3-3---3-3-3--3-4--1-1-1---1-1-1--1-4-|
|----------------------------------------|

keyboards plays something like this:
|-3-----------------3-------------1-----------------1-------------|x4
|---4---3-4---6-4-----4---3-4---4---2---1-2---4-2-----2---1-2---2-|
|-----5-----5-----5-----5-----5-------3-----3-----3-----3-----3---|
|-----------------------------------------------------------------|
|-----------------------------------------------------------------|
|-----------------------------------------------------------------|
Together, here we are, boy and girl walk alone 
Together moving like clouds 
Together billions the soldiers of love in the dark 
Together until one will see the light 


|---------------|
|---------------|
|-8---8---8---8-|
|-8---8---8---8-|
|-6---6---6---6-|
|-6---6---6---6-|
All the way alone, alone, alone, alone 


|----------------------------------------|
|----------------------------------------|
|-5-5-5---5-5-5--5-6--3-3-3---3-3-3--3-6-|
|-5-5-5---5-5-5--5-6--3-3-3---3-3-3--3-6-|
|-3-3-3---3-3-3--3-4--1-1-1---1-1-1--1-4-|
|----------------------------------------|
But together we'll always want to be 

chorus
|-----------------------------------------------------------------|x2
|-----------------------------------------------------------------|
|-5-5-5-5-5-5-5-5-5-5-5-5-5-5-5-5---------------------------------|
|-5-5-5-5-5-5-5-5-5-5-5-5-5-5-5-5-6-6-6-6-6-6-6-6-3-3-3-3-3-3-3-3-|
|-3-3-3-3-3-3-3-3-3-3-3-3-3-3-3-3-6-6-6-6-6-6-6-6-3-3-3-3-3-3-3-3-|
|-3-3-3-3-3-3-3-3-3-3-3-3-3-3-3-3-4-4-4-4-4-4-4-4-1-1-1-1-1-1-1-1-|
Do you wanna keep safe and keep control and stay rich with your money and decide for it all? 
Do you wanna keep safe and keep control and stay rich with your money and decide for it all? 
Do you? 

|----------------------------------------|
|----------------------------------------|
|-5-5-5---5-5-5--5-6--3-3-3---3-3-3--3-6-|
|-5-5-5---5-5-5--5-6--3-3-3---3-3-3--3-6-|
|-3-3-3---3-3-3--3-4--1-1-1---1-1-1--1-4-|
|----------------------------------------|



Together the bullets fly just like birds in the sky 
Together we're both paralyzed 
Together drop by drop one by one til' water falls 
If it's a game we're supposed to know we're playing 
How come some don't know? 


Don't know, don't know, don't know 
And together is all they need to be 

Do you wanna keep safe and keep control and stay rich of your money and decide for it all? 
Do you wanna keep safe and keep control and stay rich of your money and decide for it all? 
Do you? 

Do you wanna keep safe and keep control and stay rich of your money and decide for it all? 


|-------------------|
|-------------------|
|-10---10---10---10-|
|-10---10---10---10-|
|--8---8----8----8--|
|--8---8----8----8--|
Do you wanna keep safe and keep control and stay rich of your money and decide for it all? 
Do you? 

Together here we are, boy and girl walk alone 
Together moving like clouds 

Do you wanna keep safe and keep control and stay rich with your money and decide for it all? 
Do you wanna keep safe and keep control and stay rich with your money and decide for it all? 
Do you wanna keep safe and keep control and stay rich with your money and decide for it all? 
Do you wanna keep safe and keep control and stay rich with your money and decide for it all? 
Do you? 

Together 
Together 
Together 
Together 
Together 
Together 
Together 
            
Submit corrections

↑ Back to top | Tablatures and chords for acoustic guitar and electric guitar, ukulele, drums are parodies/interpretations of the original songs. You may use it for private study, scholarship, research or language learning purposes only