Home » E » Elisa »

Elisa - Come Speak To Me Tabs

Artists:  A B C D E F G H I J K L M N O P Q R S T U V W X Y Z # 

Come Speak To Me Tabs

(ver. 1) Click to play this song!
Elisa
 Rating:
4/5 (4 votes)
                Intro+1st Verse:
e|------------------|------------
B|------------------|------------
G|------------------|------------
D|-------3-5*---7---|-------3-5--
A|--5*--------------|--5*--------
E|------------------|------------

Pre-Chorus:
e|--------------------------
B|--------------------------
G|--------------------------
D|--8*---7*---5*------------
A|-----------------7*-------
E|----------------------5*--

Chorus:
E|---------------------------------------
B|---------------------------------------
G|---------------------------------------
D|----------38-88-88-7--------5----------
A|--5-55-55-----------8-88-88--7-77-777--
E|---------------------------------------

2nd Verse:
e|------------------|------------
B|------------------|------------
G|------------------|------------
D|-------3-5*---7---|-------3-5--
A|--5*--------------|--5*--------
E|------------------|------------

Bridge:
e|-----------
B|-----------
G|-----------
D|-----------
A|-----------
E|--5-5-5-5--

Outro:
E|---------------------
B|---------------------
G|---------------------
D|---------------------
A|--5*-------------7*--
E|-------6*---1*-------

Intro+1st Verse: 11x
Pre-Chorus:      1x     
Chorus:          2x     
2nd Verse:       5x
Pre-Chorus:      1x
Chorus:          4x
Solo (not bass)  
Bridge:          1x
Chorus:          4x
Outro:           2x
            
Submit corrections

↑ Back to top | Tablatures and chords for acoustic guitar and electric guitar, ukulele, drums are parodies/interpretations of the original songs. You may use it for private study, scholarship, research or language learning purposes only