» » »

Element Of Crime - Narzissen Und Kakteen Tabs

Artists:  A B C D E F G H I J K L M N O P Q R S T U V W X Y Z # 

Narzissen Und Kakteen Tabs

(ver. 1) Click to play this song!
Element Of Crime
 Rating:
4/5 (4 votes)

 Narzissen Und Kakteen  lessons Tabs too difficult? Try these video lessons and learn fast
 
                 
Vers:  
   Dmaj7                    Amaj7
e|---------------6--------|---------------------------|            (x = percussive)
B|---7--x-7--7---7---7--0-|---2--x-2--2-----2--x-2----|
G|---6--x-6--6---6---6--0-|---1--x-1--1-----1--x-1----|  2x
D|---7--x-7--7-------7--0-|---2--x-2--2-----2--x-2----|
A|-5----x-------5---5-----|-0----x-------0----------0-|
E|------------------------|---------------------------|
 
   C#m7                        Hm7                         Hm7                        Amaj7
e|---------------------------|---------------------------|--------------------------|-------------------------|
B|----5--x-5--5----5--x-5----|----3--x-3--3----3--x-3----|---3--x-3--3----3--x-3----|---2--x-2--2----2--x-2---|
G|----4--x-4--4----4--x-4----|----2--x-2--2----2--x-2----|---2--x-2--2----2--x-2----|---1--x-1--1----1--x-1---|
D|----6--x-6--6----6--x-6----|----4--x-4--4----4--x-4----|---4--x-4--4----4--x-4----|---2--x-2--2----2--x-2---|
A|--4----x-------4----x----3-|-2-----x-------2----x----2-|-2----x-------2----x------|-0----x-------0---------0|
E|---------------------------|---------------------------|------------------------2-|-------------------------|


  Refrain:
   F#m                        C#m
e|--------------------------|--------------------------|
B|---2--x-2--2----2--x-2----|---5--x-5--5----5--x-5----|
G|---2--x-2--2----2--x-2----|---6--x-6--6----6--x-6----| 3x
D|---4--x-4--4----4--x-4----|---6--x-6--6----6--x-6----|
A|------x-------------------|-4----x-------4----x------|
E|-2------------2---------2-|------------------------4-|

   Hm7
e|--------------------------|--------------------------|
B|---3--x-3--3----3--x-3----|---2--x-2--2----2--x-2----|
G|---2--x-2--2----2--x-2----|---1--x-1--1----1--x-1----|
D|---4--x-4--4----4--x-4----|---2--x-2--2----2--x-2----|
A|-2----x-------2-----------|-0----x-------0----x----0-|
E|------------------------2-|--------------------------|



Outro:
   Dmaj7              Amaj7             C#m/E              Hm/E (rit.)       Am6
e|----------5-------|---------0-------|----------4-------|---------2-------|---9---|
B|------7-------7---|-----2-------2---|------5-------5---|-----3-------3---|--10---|
G|----6---6---6---6-|---1---1---1---1-|----6---6---6---6-|---4---4---4---4-|--11---|
D|------------------|-----------------|------------------|-----------------|--11---|
A|--5---------------|-0---------------|------------------|-----------------|--0----|
E|------------------|-----------------|--0---------------|-0---------------|-------|


Vers:
Dmaj7                       Amaj7
   Wir haben viel zu lang geschlafen
Dmaj7                      Amaj7
   und ich erwache zögernd nur
C#m7                       Hm7
 aus einem viel zu dunklen Traum
Hm7                   Amaj7
und ich erinnere mich kaum

Dmaj7                      Amaj7
   an die einst vertrauten Gesten
Dmaj7                        Amaj7
   und wie die Worte nochmal geh'n,
C#m7                  Hm7
 die uns sagen es ist gut.
Hm7             Amaj7
Narzissen und Kakteen

Refrain:
F#m             C#m
 Früher war ich klug
F#m            C#m
 Heute bist du schön
F#m            C#m
 Hinter uns verbrennen
Hm7              Amaj7
Narzissen und Kakteen            
Submit corrections


        Narzissen Und Kakteen  lessons Hard to play? Try these video lessons and learn fast Narzissen Und Kakteen  lessons
        
↑ Back to top | Tablatures and chords for acoustic guitar and electric guitar, ukulele, drums are parodies/interpretations of the original songs. You may use it for private study, scholarship, research or language learning purposes only