» » »

Element Of Crime - Die Letzte U-bahn Geht Spater Tabs

Artists:  A B C D E F G H I J K L M N O P Q R S T U V W X Y Z # 

Die Letzte U-bahn Geht Spater Tabs

(ver. 1) Click to play this song!
Element Of Crime
 Rating:
4/5 (4 votes)

 Die Letzte U-bahn Geht Spater lessons Tabs too difficult? Try these video lessons and learn fast
 
                  Intro 2. Gitarre
                            
e|----------|--------|--------|-------|----------|--------|-------|--------|-------|
B|----------|--------|--------|-------|----------|--------|-------|-6------|-6-----|
G|--------2-|-5--3---|-----2--|-5-3-2-|-----5-3s-|-2------|---9-9-|----9---|-------|
D|--0---3---|--------|---3----|-------|-3s5------|-----3s-|-7-----|------7-|-------|
A|----------|--------|--------|-------|----------|--------|-------|--------|-------|
E|----------|--------|--------|-------|----------|--------|-------|--------|-------|

   Intro/Vers                                                                        Takt im Intro 2x 
   Dm             Gm            C           B               Gm          B             A            Dm
e|-------1--------------3-----|-------3------------1-----|-------3------------1-----|-------0------------1----|
B|-----3---3----------3---3---|-----5---5--------3---3---|-----3---3--------3---3---|-----2---2--------3---3--|
G|---2-------2------3-------3-|---5-------5----3-------3-|---3-------3----3-------3-|---2-------2----2-------2|
D|-0-----------1--------------|--------------------------|--------------------------|--------------0----------|
A|----------------------------|-3------------1-----------|--------------------------|-0-----------------------|
E|----------------3-----------|--------------------------|-3------------1-----------|-------------------------|

   Refrain
    C           B             F           Dn             Gm          B              F            A
e|-------0------------1-----|-------1------------1-----|-------3------------1-----|-------1-----------0------|
B|-----1---1--------3---3---|-----1---1--------3---3---|-----3---3--------3---3---|-----1---1-------2---2----|
G|---0-------0----3-------3-|---2-------2----2-------2-|---3-------3----3-------3-|---2-------2---2-------2--|
D|--------------------------|--------------0-----------|--------------------------|--------------------------|
A|-3------------1-----------|--------------------------|--------------1-----------|-------------0------------|
E|--------------------------|-1------------------------|-3------------------------|-1------------------------|

                                                                                   Takt 2x
   Dm           Gm           C            B             Gm            B            A            Dm
e|-------1------------3-----|------3------------1-----|-------3------------3-----|-------0------------1------|
B|-----3---3--------3---3---|----5---5--------3---3---|-----3---3--------3---3---|-----2---2--------3---3----|
G|---2-------2----3-------3-|--5-------5----3-------3-|---3-------3----3-------3-|---2-------2----2-------2--|
D|-0------------------------|-------------------------|--------------------------|--------------0------------|
A|--------------------------|-3-----------1-----------|--------------------------|-0-------------------------|
E|--------------3-----------|-------------------------|-3------------1-----------|---------------------------|


Dm                Gm        C                      B     
Draußen ist alles klar. Der letzte Sportfreund, da geht er
    G                  B          A                  Dm                 
Die letzte U-Bahn geht später und du bist immer noch da
      Dm                  Gm             C                     B
Genau da, wo ich dich das erste Mal sah, was damals vor fünf Minuten war,
    G,             B          A                  Dm
und alles ist ganz wunderbar. Du bist immer noch da


Refrain:
    C        B      F                   Dm 
Und siehst dahin wo ich auf keinen Fall bin 
        Gm                         C             F                 A
und verdrehst mit den Fingern dein Haar und nur Idioten finden das wunderbar. 
    Dm                Gm         C                  B
Ein Vollidiot bin ich gern. Der letzte Verstand, da geht er. 
    Gm                 B          A                  Dm
Die letzte U-Bahn geht später und du bist immer noch da. 
A                  Dm
Du bist immer noch da


Dm                Gm        C                    B
Draußen ist alles klar. Ein plötzlicher Wind, da dreht er
Gm                           B           A                Dm
sich um sich selbst und dann weht er uns Blütenträume ins Haar. 
         Dm                  Gm                   C                       B       
Ich sag: Was geht jetzt? und du sagst: Ja und ich weiß nicht, ob das eine Frage war
    Gm             B          A                  Dm
und alles ist ganz wunderbar. Du bist immer noch da

            
Submit corrections


        Die Letzte U-bahn Geht Spater lessons Hard to play? Try these video lessons and learn fast Die Letzte U-bahn Geht Spater lessons
        
↑ Back to top | Tablatures and chords for acoustic guitar and electric guitar, ukulele, drums are parodies/interpretations of the original songs. You may use it for private study, scholarship, research or language learning purposes only